Distillers - The Hunger Chords & Tabs

 

The Hunger Chords & Tabs

Distillers Chords & Tabs

Version: 2 Type: Tab 0 ratings
1 star 2 stars 3 stars 4 stars 5 stars
comments

The Hunger Tab

   
---------------------------------------------------------------------------
			     The Hunger - The Distillers
---------------------------------------------------------------------------
Tabbed by: Andre Lee
Email: the_distillers5@hotmail.com	

If you read this, please give me a rating.

Tuning: STANDARD eBGDAE

Listen to the song for strumming patterns.

| /  slide up
| \  slide down
| #  bend up

Song Order: 

Intro/Verse
Chorus
Solo #1 with Intro/Verse in the background
Intro/Verse
Chorus
Solo #2 with Intro/Verse in the background
Chorus 
Fade 1
Fade 2


Intro/Verse (acoustic)

e|-0----0-----X------x----x------x---x-------x--------------------------|
B|-1----1-----X------x----x------x---x-------x--------------------------|
G|-2----0-----5------x----x------x---4-------x--------------------------|
D|-2----2-----5------5----3------2---4-------0--------------------------|
A|-0-x3-0-----3-x3---5----3-x4---2---2--x3---2--------------------------|
E|-0----0-----X------3----1------0---0-------3--------------------------|

Chorus (distorted)                        (This half at the end of chorus)

e|--x--x--x---x-x---x--x--x---x-x------------x--x-x----x---x-x----------|
B|--x--x--x---x-x---x--x--x---x-x------------x--x-x----x---x-x----------|
G|--x--x--x---x-x---x--x--x---x-x------------x--x-x----x---x-x----------|
D|--5--5--5---2-2---3--3--3---2-2------------5--5-5----2---2-2----------|
A|--5--5--5---2-2---3--3--3---2-2------x7----5--5-5----2---2-2----------|
E|--3--3--3---0-0---1--1--1---0-0------------3--3-3----0---0-0----------|

Solo #1 (before verse 2)

e|----------------------------------------------------------------------|
B|----------------------------------------------------------------------|
G|----------------------------------------------------------------------|
D|--7\5-5-5\2-2-2/3-3-3\2-----7\5-5-5/7------7\5-5-5/7-7-7/12-----------|
A|----------------------------------------------------------------------|
E|----------------------------------------------------------------------|

Solo #2
[ Tab from: http://www.guitartabs.cc/tabs/d/distillers/the_hunger_tab_ver_2.html ]
e|----------------------------------------------------------------------|
B|----------------------------------------------------------------------|
G|----------------------------------------------------------------------|
D|-10---10-9-7-9--------------------------------------------------------|
A|----------------10/12-12\11-11/1212/14--12/---------------------------|
E|----------------------------------------------------------------------|

e|----------------------------------------------------------------------|
B|----------------------------------------------------------------------|
G|----------------------------------------------------------------------|
D|---10-9-7-9-----------------------------------------------------------|
A|-------------10--10-8--12\11-11/1212/14--12/--------------------------|
E|----------------------------------------------------------------------|

e|----------------------------------------------------------------------|
B|----------------------------------------------------------------------|
G|----------------------------------------------------------------------|
D|----10-9-7-9-10--10/13--#13---10-9-10-7/----------10-9-7-9------------|
A|-----------------------------------------------------------10---------|
E|----------------------------------------------------------------------|


Last min. of Song

Play this twice, BUT play all 3 strings for the last two chords on the second time.

Fade 1

e|--x-------x--------x-------x------------------------------------------|
B|--x-------x--------x-------x------------------------------------------|
G|--2-------5--------x-------4------------------------------------------|
D|--2-------5--------3-------4------------------------------------------|
A|--x--x8---x--x8----3--x8---x--x8--------------------------------------|
E|--x-------x--------x-------x------------------------------------------|

Play this twice, BUT slow down the last chord at the end of the song.

Fade 2

e|-0-------x------x-------x---------0-----------------------------------|
B|-1-------x------x-------x---------1-----------------------------------|
G|-2-------5------x-------4---------2-----------------------------------|
D|-2-------5------3-------4---------2-----------------------------------|
A|-0--x8---3--x8--3--x8---2----x8---0-----------------------------------|
E|-0-------x------1-------x---------0-----------------------------------|


| /  slide up
| \  slide down
| h  hammer-on
| p  pull-off
| ~  vibrato
| +  harmonic
| x  Mute note
=========================================================================
Comments