Distillers - The Hunger Chords & Tabs

 

The Hunger Chords & Tabs

Distillers Chords & Tabs

Version: 4 Type: Bass Tab 0 ratings
1 star 2 stars 3 stars 4 stars 5 stars
comments

The Hunger Bass Tab

g--------------------------|    Intro/chorus
d--------------------------|
a--------------------------|
e----7/3-3-3-000-1-1-1-000-|

g-------------------------------|
d-------------------------------|
a---------3-333/0-------2-222/0-|
e--5-555/7-------1-111/0--------|
[ Tab from: http://www.guitartabs.cc/tabs/d/distillers/the_hunger_btab_ver_4.html ]
repeat chorus
then verse
chorus
play verse during the guitar solo
chorus
bass solo
g---------------------------------|
d---------------------------------|
a-----------3-333/0-------2-222/0-|
e--7/5-555/7-------1-111/0--------|
 then
g---------------------------------|
d---------------------------------|
a---------33333333--------2222222-|
e-55555555--------11111111--------|

this is my first tab i am entierly sure it is correct and enjoy
Comments