Distillers - The Hunger Chords & Tabs

 

The Hunger Chords & Tabs

Distillers Chords & Tabs

Version: 3 Type: Bass Tab 0 ratings
1 star 2 stars 3 stars 4 stars 5 stars
comments

The Hunger Bass Tab

   
this is the hunger by the distillers......

Verse:
G------------------------------------------|
D------------------------------------------|
A-0--0-0-0-2-3--3-3-3-----------0-2--2-2-3-|
E---------------------0-1--1-1-1-----------|
[ Tab from: http://www.guitartabs.cc/tabs/d/distillers/the_hunger_btab_ver_3.html ]
Chorus:
G---------------------|
D---------------------|
A---------------------|
E-3-3-3-0-0-1-1-1-0-0-| (4x)


the verse starts when the singing starts...kinda like this:

  holy eyes i never knew i'd beg down at your feet
G--------------------------------------------|
D--------------------------------------------|
A---0--0-0-0-2-3--3-3-3-----------0-2--2-2-3-|
E----------------------0-1--1-1-1------------|
Comments