Distillers - Sing Sing Death House Chords & Tabs

 

Sing Sing Death House Chords & Tabs

Distillers Chords & Tabs

Version: 1 Type: Bass Tab 0 ratings
1 star 2 stars 3 stars 4 stars 5 stars
comments

Sing Sing Death House Bass Tab

  This is the easiest distillers song to play and this is actually right
unlike all the other distillers tabs! So lets just get on wiv this


    |------------------------------------------------     
    |------------------------------------------------
    |-9-9-9-------------------------------9-9-9-9-9-9     verse and intro
    |-------5-5-5-8-7-7-8-7-7-8-8-8-7-7-7------------

[ Tab from: http://www.guitartabs.cc/tabs/d/distillers/sing_sing_death_house_btab.html ]
    |----------------------------------------   
    |----------------------------------------
    |-------9-7-5-5-5-5-5-------5-7----------     Chorus
    |-7-7-7---------------5-5-5-----7-7-7-7-7


    |--------------
    |--------------
    |--------------  End bit (where it goes arr f*** it)
    |-5-7-5-9-7-5-2


   and thats it, if you have any comments or you just want to talk about bass or
something then email me at mike@smeadows.plus.com or if you have msn my hotmail
is that email address there!
Comments