Distillers - Sick Of It All Chords & Tabs

 

Sick Of It All Chords & Tabs

Distillers Chords & Tabs

Version: 1 Type: Bass Tab 0 ratings
1 star 2 stars 3 stars 4 stars 5 stars
comments

Sick Of It All Bass Tab

   
-------------------------------------------------------------------------------
			     SICK OF IT ALL - The Distillers
-------------------------------------------------------------------------------

Tabbed By : Chris Cyhan
e-mail: chris.cyhan@luminar.co.uk

Tuning: E A D G

RIFF #1

G|---------------------------------------------------------------------------|
D|---------------------------------------------------------------------------|
A|-5-7777777-5-7777777------55---5-7777777-----------------------------------|
E|---------------------3333----5---------------------------------------------|

RIFF #2

G|---------------------------------------------------------------------------|
D|---------------------------------------------------------------------------|
A|---------5555555-7777777-7777777-------------------------------------------|
E|-3333333-------------------------------------------------------------------|
[ Tab from: http://www.guitartabs.cc/tabs/d/distillers/sick_of_it_all_btab.html ]
RIFF #3

G|---------------------------------------------------------------------------|
D|---------------------------------------------------------------------------|
A|-5-7777777-5-8-10-7777-5-8-10------5~--------------------------------------|
E|------------------------------3333---5~------------------------------------|

RIFF #4

G|---------------------------------------------------------------------------|
D|---------------------------------------------------------------------------|
A|-5-7777777-5-8-10-7777-5-8-10------5---7-----------------------------------|
E|------------------------------3333---5-------------------------------------|

RIFF #5

G|---------------------------------------------------------------------------|
D|---------------------------------------------------------------------------|
A|-77777777----------55555555-7777----7777-----------------------------------|
E|----------33333333---------------33------33--------------------------------|
Comments