Distillers - Lordy Lordy Chords & Tabs

 

Lordy Lordy Chords & Tabs

Distillers Chords & Tabs

Version: 1 Type: Tab 0 ratings
1 star 2 stars 3 stars 4 stars 5 stars
comments

Lordy Lordy Tab

tabbed by: tessa r
email: nofxchick934@hotmail.com

standard tuning: eBGDAE

intro:
e|---------------------------|
B|---------------------------|
G|---------------7-----------|
D|--7--6/7--6/7--7--7--2--7--|
A|--7--6/7--6/7--5--7--2--7--|
E|--5--4/5--4/5-----5--0--5--|
[ Tab from: http://www.guitartabs.cc/tabs/d/distillers/lordy_lordy_tab.html ]
verse:
e|--------------|
B|--------------|
G|--7-----9-----|
D|--7--7--9--7--|
A|--5--7--7--7--|
E|-----5-----5--|

e|---------------------------|
B|---------------------------|
G|------------7-----9--7-----|
D|--6/7--6/7--7--7--9--7--7--|
A|--6/7--6/7--5--7--7--5--7--|
E|--4/5--4/5-----5--------5--|

i didnt tab out the solo, if i tried it would most likely be wrong...enjoy! =)
Comments