Distillers - La Girl Chords & Tabs

 

La Girl Chords & Tabs

Distillers Chords & Tabs

Version: 1 Type: Tab 0 ratings
1 star 2 stars 3 stars 4 stars 5 stars
comments

La Girl Tab

Intro  
e|---------------------------------------------------------------------------|
B|---------------------------------------------------------------------------|
G|---------------------------------------------------------------------------|
D|---------------------------------------------------------------------------|
A|--x--2---------------------------------------------------------------------|
E|--x--0---------------------------------------------------------------------|

"This is the story..."
e|---------------------------------------------------------------------------|
B|---------------------------------------------------------------------------|
G|---------------------------------------------------------------------------|
D|-----2---------------------------------------------------------------------|
A|--2--0--2--7-----(repeat verse 2x then slide pic down low E string)--------|
E|--0-----0--5---------------------------------------------------------------|

"Yeah God Oh Mighty...)
e|---------------------------------------------------------------------------|
B|---------------------------------------------------------------------------|
G|---------------------------------------------------------------------------|
D|--7------------------------------------------------------------------------|
A|--5--7--2----(repeat verse 2x)---------------------------------------------|
E|-----5--0------------------------------------------------------------------|

"Outta mind, outta sight...)
e|---------------------------------------------------------------------------|
B|---------------------------------------------------------------------------|
G|---------------------------------------------------------------------------|
D|--7-----7-----7------------------------------------------------------------|
A|--5--7--5--7--5--7--2------------------------------------------------------|
E|-----5-----5-----5--0------------------------------------------------------|

"Then she went glassy..."
e|---------------------------------------------------------------------------|
B|---------------------------------------------------------------------------|
G|---------------------------------------------------------------------------|
D|-----2---------------------------------------------------------------------|
A|--2--0--2--7-----(repeat verse 2x then slide pic down low E string again)--|
E|--0-----0--5---------------------------------------------------------------|

"Yeah God Oh Mighty..."
e|---------------------------------------------------------------------------|
B|---------------------------------------------------------------------------|
G|---------------------------------------------------------------------------|
D|--7------------------------------------------------------------------------|
A|--5--7--2------(repeat verse 2 times)--------------------------------------|
E|-----5--0------------------------------------------------------------------|
[ Tab from: http://www.guitartabs.cc/tabs/d/distillers/la_girl_tab.html ]
"Outta mind, outta sight...)
e|---------------------------------------------------------------------------|
B|---------------------------------------------------------------------------|
G|---------------------------------------------------------------------------|
D|--7-----7-----7------------------------------------------------------------|
A|--5--7--5--7--5--7--2------------------------------------------------------|
E|-----5-----5-----5--0------------------------------------------------------|

"Hey, yeah, yeah, yeah..."
e|---------------------------------------------------------------------------|
B|---------------------------------------------------------------------------|
G|---------------------------------------------------------------------------|
D|--2--7---------------------------------------------------------------------|
A|--0--5--7--2------(repeat verse 3x)----------------------------------------|
E|--------5--0---------------------------------------------------------------|

"Oh baby..."
e|---------------------------------------------------------------------------|
B|---------------------------------------------------------------------------|
G|---------------------------------------------------------------------------|
D|---------9-----------------------------------------------------------------|
A|--10--7--7-------(repeat verse 2x)-----------------------------------------|
E|--8---5--------------------------------------------------------------------|

"Do I miss you, do I miss you..."
e|---------------------------------------------------------------------------|
B|---------------------------------------------------------------------------|
G|--------------------------------------------------------------------9------|
D|--9-----7--2---------------------------------------------------------------|
A|--7--7--5--0-------7--(keep strumming this chord until the next verse)-|
E|-----5---------------------------------------------------------------------|

"And I said god oh mighty..."
e|---------------------------------------------------------------------------|
B|---------------------------------------------------------------------------|
G|---------------------------------------------------------------------------|
D|--7------------------------------------------------------------------------|
A|--5--7--2----(repeat verse 2x)---------------------------------------------|
E|-----5--0------------------------------------------------------------------|

"Outta mind, outta site..."
e|---------------------------------------------------------------------------|
B|---------------------------------------------------------------------------|
G|---------------------------------------------------------------------------|
D|--7-----7-----7-----7------------------------------------------------------|
A|--5--7--5--7--5--7--5--7--2------------------------------------------------|
E|-----5-----5-----5-----5--0------------------------------------------------|

"Hey, yeah, yeah, yeah..."
e|---------------------------------------------------------------------------|
B|---------------------------------------------------------------------------|
G|---------------------------------------------------------------------------|
D|--2--7---------------------------------------------------------------------|
A|--0--5--7--2----(repeat verse 2x)------------------------------------------|
E|--------5--0---------------------------------------------------------------|

Last Verse
e|---------------------------------------------------------------------------|
B|---------------------------------------------------------------------------|
G|---------------------------------------------------------------------------|
D|--2--7-----9---------------------------------------------------------------|
A|--0--5--7--7---------------------------------------------------------------|
E|--------5------------------------------------------------------------------|
Comments