Distillers - I Am A Revenant Chords & Tabs

 

I Am A Revenant Chords & Tabs

Distillers Chords & Tabs

Version: 1 Type: Tab 0 ratings
1 star 2 stars 3 stars 4 stars 5 stars
comments

I Am A Revenant Tab

Awesome song! Just listen to the song to see how many times you play each part.
Any questions, comments e-mail me.. im_such_a_kinky_babe@hotmail.com. Good luck!   =)

Tuning: Standard
\: Slide
PM: Palm Mute
>>: Scrape

Intro: (scrape only at beginning)
E->>---------------------------------------------------------------------------
B------------------------------------------------------------------------------
G-------------4--0-0--2-0-2--4-2-0-2-0---0---0-2-0----------------4--0-0--2-0--
D----2-2--4-5--------------------------4---4-------4-2------2-4-5--------------
A------------------------------------------------------------------------------
E------------------------------------------------------------------------------

-----------------------|
-----------------------|
-2-2\4--2-0-2-0--------|
-----------------4-2---|
-----------------------|
-----------------------|

Verse:
E-----------------------------2-2-2--2-3--|
B-----------------------------3-3-3--3-3--|
G-----------------------------2-2-2--2-2--|
D-----------5-5-5-5-----------------------|
A--2-2-2-2--3-3-3-3--5-5-5-5--------------|
E--0-0-0-0-----------3-3-3-3--------------|
[ Tab from: http://www.guitartabs.cc/tabs/d/distillers/i_am_a_revenant_tab.html ]
Chorus:
E--------------------------------------|
B--------------------------------------|
G--------------------------------------|
D--3-3-3-3-----------5-5-5-5-----------|
A--1-1-1-1--3-3-3-3--3-3-3-3--5-5-5-5--|
E-----------1-1-1-1-----------3-3-3-3--|

Back to first half of intro

Verse 3x then finish with this..

E--0-0-0--3-3-3--2----|
B------------------3--|
G---------------------|
D---------------------|
A---------------------|
E---------------------|

Back to Chorus

Then Verse 2 times

This is then played 2 times after verse. The second time the solo can be played
instead since there is two guitarists. You choose.

E--2-2-2-2--0-0-0-0--0-0-0-0--3-3-3-3--|
B--3-3-3-3--0-0-0-0--1-1-1-1--0-0-0-0--|
G--2-2-2-2--0-0-0-0--0-0-0-0--0-0-0-0--|
D--0-0-0-0--2-2-2-2--2-2-2-2--0-0-0-0--|
A-----------2-2-2-2--3-3-3-3--2-2-2-2--|
E-----------0-0-0-0-----------3-3-3-3--|

Solo:
E--12-12-12-12--10-10-10-->>--|
B-----------------------------|
G-----------------------------|
D-----------------------------|
A-----------------------------|
E-----------------------------|

Back to Chorus 

Then Palm Muted quiet part:
E------------------------------------------|
B------------------------------------------|
G------------------------------------------|
D-----------2-2-2-0-----------4-4-4-0------|
A--2-2-2-0--3-3-3-0--2-2-2-0--5-5-5-0------|
E--0-0-0-0-----------3-3-3-0----------->>--|
  PM---->

Verse 4x

You're DOne!!
Comments