Distillers - Hall Of Mirrors Chords & Tabs

 

Hall Of Mirrors Chords & Tabs

Distillers Chords & Tabs

Version: 1 Type: Tab 0 ratings
1 star 2 stars 3 stars 4 stars 5 stars
comments

Hall Of Mirrors Tab

   
-------------------------------------------------------------------------------
			     Hall of Mirrors - The distllers
-------------------------------------------------------------------------------
Tabbed by:Ffcrazydude 
Email:ffcrazy_dude@hotmail.com 

Tuning: Normal
Hehe i played this wiv mi band at r 1st skool comp, didnt go so well. But i know the song so here goes.
Verse 1 play the is section 3 times, once for each set of 2 lines.
e|--------------------------------------------------------------------------|
B|--------------------------------------------------------------------------|
G|---------33333333----------55555555---------------------------------------|
D|55555555-33333333-33333333-55555555---------------------------------------|
A|77777777-55555555-33333333-77777777---------------------------------------|
E|77777777----------55555555------------------------------------------------|
  I come down like a hurricane sucked up inside | 1st set of lines
  Now i spit out the suffer yeah                |    

  You say ypu want a revelation                 | 2nd set of lines
  Well revel in this my lover                   |

  Your free at liberty                          | 3rd set of lines
  Is that what you want some times i wonder...  |

Chorus
e|--------------------------------------------------------------------------|
B|--------------------------------------------------------------------------|
G|33333333----------77777777-55555555---------------------------------------|
D|33333333-33333333-77777777-55555555---------------------------------------|
A|55555555-33333333-99999999-77777777---------------------------------------|
E|---------55555555---------------------------------------------------------|
  Theres a highway to, to the edge yeah               |1st time
  Every night you will drive yourself there           |  

  At the end of the road you will find the answers    |2nd time
  At the end of the road you will drink the fear      | 

Verse 2
e|--------------------------------------------------------------------------|
B|--------------------------------------------------------------------------|
G|---------33333333----------55555555---------------------------------------|
D|55555555-33333333-33333333-55555555---------------------------------------|
A|77777777-55555555-33333333-77777777---------------------------------------|
E|77777777----------55555555------------------------------------------------|
  I come down like a bloody rain             |1st time
  cut up flesh sky pulse beating under yeah  |

  Meat petals bloom in a bone garden         |2nd time
  No god no ghost gonna save you now         |

  I sell souls at the side of the road       |3rd time
  Would you like to take a number            |

Chorus
e|--------------------------------------------------------------------------|
B|--------------------------------------------------------------------------|
G|33333333----------77777777-55555555---------------------------------------|
D|33333333-33333333-77777777-55555555---------------------------------------|
A|55555555-33333333-99999999-77777777---------------------------------------|
E|---------55555555---------------------------------------------------------|
  Theres a highway to, to the edge yeah               |1st time
  Every night you will drive yourself there           |  

  At the end of the road you will find the answers    |2nd time
  At the end of the road you will drink the fear      | 

[ Tab from: http://www.guitartabs.cc/tabs/d/distillers/hall_of_mirrors_tab.html ]
Instrumental: cant remember all of this, palm mute this bit though
Guitar 1-Palm muted
e|--------------------------------------------------------------------------|
B|--------------------------------------------------------------------------|
G|---------33333333----------55555555---------------------------------------|
D|55555555-33333333-33333333-55555555---------------------------------------|
A|77777777-55555555-33333333-77777777---------------------------------------|
E|77777777----------55555555------------------------------------------------|
Guitar 2-Normal
e|---------------------------------------------------------------------------
B|---------------------------12/1-------------------------------------------|
G|------------------1/12----------------------------------------------------|
D|---------12/1-------------------------------------------------------------|
A|1/12----------------------------------------------------------------------|
E|--------------------------------------------------------------------------|

Bridge
e|--------------------------------------------------------------------------|
B|--------------------------------------------------------------------------|
G|33333333----------77777777-55555555---------------------------------------|
D|33333333-33333333-77777777-55555555---------------------------------------|
A|55555555-33333333-99999999-77777777---------------------------------------|
E|---------55555555---------------------------------------------------------|
  Take your time come on get what yo come for
  Dont waste my time come on get what youve come for 

  Dont waste my time come on get what youve come for |Played with palm muting
  Dont waste my time come on get what youve come for |
 
Chorus
e|--------------------------------------------------------------------------|
B|--------------------------------------------------------------------------|
G|33333333----------77777777-55555555---------------------------------------|
D|33333333-33333333-77777777-55555555---------------------------------------|
A|55555555-33333333-99999999-77777777---------------------------------------|
E|---------55555555---------------------------------------------------------|
  Theres a highway to, to the edge yeah               |1st time
  Every night you will drive yourself there           |  

  At the end of the road you will find the answers    |2nd time
  At the end of the road you will drink the fear      | 

Ending bit
e|--------------------------------------------------------------------------|
B|--------------------------------------------------------------------------|
G|---------33333333----------55555555---------------------------------------|
D|55555555-33333333-33333333-55555555---------------------------------------|
A|77777777-55555555-33333333-77777777---------------------------------------|
E|77777777----------55555555------------------------------------------------|
  I watched you burn in the eye of my sun, in the eye of my sun yeah yeah
  I fucked you in, in the eye of my sun, in the the eye of my sun yeah yeah 
  x2

e|---------------------------------------------------------------------------
B|--------------------------------------------------------------------------|
G|33------------------------------------------------------------------------|
D|33-3----------------------------------------------------------------------|
A|55-3----------------------------------------------------------------------|
E|---5----------------------------------------------------------------------|
  Yeah yeah

| /  slide up
| \  slide down
| h  hammer-on
| p  pull-off
| ~  vibrato
| +  harmonic
| x  Mute note
=============================================================================
Comments