Distillers - Hall Of Mirrors Chords & Tabs

 

Hall Of Mirrors Chords & Tabs

Distillers Chords & Tabs

Version: 1 Type: Bass Tab 0 ratings
1 star 2 stars 3 stars 4 stars 5 stars
comments

Hall Of Mirrors Bass Tab

Artist: The Distillers
Album: Coral Fang
Track: Hall of mirrors

Ok so here's my tab for Hall of mirrors I think it's pretty accurate so feel free to 
if I'm wrong.

Verse: Strum each about 13 times

G -----------------------|
D -----------------------|
A --0---3-------5--------|
E ----------3------------|


Chorus:
[ Tab from: http://www.guitartabs.cc/tabs/d/distillers/hall_of_mirrors_btab.html ]
G ----------------------------------------------------|
D ----------------------------------------------------|
A --3-3-3-3-3--------3h5/7-7-7-7-7--5-5-7p5-5---------|
E ------------3-3-3-----------------------------------|


Break:

G -----------------------|
D -----------------------|
A --0---3-------5-/7-----|
E ----------3------------|

G ----------------------------------------------|
D ----7-5---------------------------------------|
A --0-----7--0-3--3-2-3------------5-7-5-3------|
E ----------------------3--3-2-3----------------|


End on:

G -----------|
D -----------|
A ---0~~~----|
E -----------|

Structure:
Verse
Chorus
Verse
Chorus
Break
Chorus
Verse

Tabbed by Pete Earnshaw
Comments