Distillers - Gallow Is God Chords & Tabs

 

Gallow Is God Chords & Tabs

Distillers Chords & Tabs

Version: 2 Type: Tab 0 ratings
1 star 2 stars 3 stars 4 stars 5 stars
comments

Gallow Is God Tab

   
The Distillers - The Gallow Is God

Tabbed by Linda P   kittiepixie2001@yahoo.no
Guitar 1: E A D G B E
Guitar 2: E A D G B E

1/2/3/4 = Slide your finger from 1 to 4

  Intro:
  Guitar 1:
|-0-0-x-----------|-0-0-x-----------|-0-0-x-----------|-0-0-x-----------|
|-2-2-x---------4-|-2-2-x---------4\|-2-2-x---------4\|-2-2-x--------444|
|-2-2-x---------5-|-2-2-x---------5\|-2-2-x---------5\|-2-2-x--------555|
|-2-2-x---------6-|-2-2-x---------6\|-2-2-x---------6\|-2-2-x--------666|
|-0-0-x---------6-|-0-0-x---------6\|-0-0-x---------6\|-0-0-x--------666|
|------1/2/3/4--4-|------1/2/3/4--4\|------1/2/3/4--4\|------1/2/3/4-444|
|                 |                 |                 |                 |
| Guitar 2:       |                 |                 |                 |
|-----------------|-----------------|-----------------|-----------------|
|-----------------|-----------------|---------------4-|--------------444|
|-----------------|-----------------|---------------5-|--------------555|
|-----------------|-----------------|-----------------|--------------666|
|-----------------|-----------------|-----------------|--------------666|
|-----------------|-----------------|-----------------|--------------444|


  Guitar 1:
|-----------------|-0-0-x-----------|-0-0-x-----------|-0-0-x-----------|
|------2----4---4\|-2-2-x--------444|-2-2-x---------4\|-2-2-x---------4\|
|------3----5---5\|-2-2-x--------555|-2-2-x---------5\|-2-2-x---------5\|
|------4----6---6\|-2-2-x--------666|-2-2-x---------6\|-2-2-x---------6\|
|------4----6---6\|-0-0-x--------666|-0-0-x---------6\|-0-0-x---------6\|
|------2----4---4\|------1/2/3/4-444|------1/2/3/4--4\|------1/2/3/4--4\|
|                 |                 |                 |                 |
| Guitar 2:       |                 |                 |                 |
|-----------------|-0-0-x-----------|-0-0-x-----------|-0-0-x-----------|
|------2----4---4\|-2-2-x--------444|-2-2-x---------4\|-2-2-x---------4\|
|------3----5---5\|-2-2-x--------555|-2-2-x---------5\|-2-2-x---------5\|
|------4----6---6\|-2-2-x--------666|-2-2-x---------6\|-2-2-x---------6\|
|------4----6---6\|-0-0-x--------666|-0-0-x---------6\|-0-0-x---------6\|
|------2----4---4\|------1/2/3/4-444|------1/2/3/4--4\|------1/2/3/4--4\|

  Verse 1:
  Guitar 1:
|-0-0-x-----------|-0-0-x-----------|-0-0-x-----------|-0-0-x-----------|
|-2-2-x---------4\|-2-2-x---------4\|-2-2-x---------4\|-2-2-x---------4\|
|-2-2-x---------5\|-2-2-x---------5\|-2-2-x---------5\|-2-2-x---------5\|
|-2-2-x---------6\|-2-2-x---------6\|-2-2-x---------6\|-2-2-x---------6\|
|-0-0-x---------6\|-0-0-x---------6\|-0-0-x---------6\|-0-0-x---------6\|
|------1/2/3/4--4\|------1/2/3/4--4\|------1/2/3/4--4\|------1/2/3/4--4\|
|                 |                 |                 |                 |
| Guitar 2:       |                 |                 |                 |
|-0-0-x-----------|-0-0-x-----------|-0-0-x-----------|-0-0-x-----------|
|-2-2-x---------4\|-2-2-x---------4\|-2-2-x---------4\|-2-2-x---------4\|
|-2-2-x---------5\|-2-2-x---------5\|-2-2-x---------5\|-2-2-x---------5\|
|-2-2-x---------6\|-2-2-x---------6\|-2-2-x---------6\|-2-2-x---------6\|
|-0-0-x---------6\|-0-0-x---------6\|-0-0-x---------6\|-0-0-x---------6\|
|------1/2/3/4--4\|------1/2/3/4--4\|------1/2/3/4--4\|------1/2/3/4--4\|
      Oh  how  my   heart it sings              suicide

  Guitar 1:
|-0-0-x-----------|-0-0-x-----------|-0-0-x-----------|-0-0-x-----------|
|-2-2-x---------4\|-2-2-x---------4\|-2-2-x---------4\|-2-2-x---------4\|
|-2-2-x---------5\|-2-2-x---------5\|-2-2-x---------5\|-2-2-x---------5\|
|-2-2-x---------6\|-2-2-x---------6\|-2-2-x---------6\|-2-2-x---------6\|
|-0-0-x---------6\|-0-0-x---------6\|-0-0-x---------6\|-0-0-x---------6\|
|------1/2/3/4--4\|------1/2/3/4--4\|------1/2/3/4--4\|------1/2/3/4--4\|
|                 |                 |                 |                 |
| Guitar 2:       |                 |                 |                 |
|-0-0-x-----------|-0-0-x-----------|-0-0-x-----------|-0-0-x-----------|
|-2-2-x---------4\|-2-2-x---------4\|-2-2-x---------4\|-2-2-x---------4\|
|-2-2-x---------5\|-2-2-x---------5\|-2-2-x---------5\|-2-2-x---------5\|
|-2-2-x---------6\|-2-2-x---------6\|-2-2-x---------6\|-2-2-x---------6\|
|-0-0-x---------6\|-0-0-x---------6\|-0-0-x---------6\|-0-0-x---------6\|
|------1/2/3/4--4\|------1/2/3/4--4\|------1/2/3/4--4\|------1/2/3/4--4\|
      Oh  how  my   gallow    sinks        of      black   dye

  Guitar 1:
|-0-0-x-----------|-0-0-x-----------|-0-0-x-----------|-0-0-x-----------|
|-2-2-x---------4\|-2-2-x---------4\|-2-2-x---------4\|-2-2-x---------4\|
|-2-2-x---------5\|-2-2-x---------5\|-2-2-x---------5\|-2-2-x---------5\|
|-2-2-x---------6\|-2-2-x---------6\|-2-2-x---------6\|-2-2-x---------6\|
|-0-0-x---------6\|-0-0-x---------6\|-0-0-x---------6\|-0-0-x---------6\|
|------1/2/3/4--4\|------1/2/3/4--4\|------1/2/3/4--4\|------1/2/3/4--4\|
|                 |                 |                 |                 |
| Guitar 2:       |                 |                 |                 |
|-0-0-x-----------|-0-0-x-----------|-0-0-x-----------|-0-0-x-----------|
|-2-2-x---------4\|-2-2-x---------4\|-2-2-x---------4\|-2-2-x---------4\|
|-2-2-x---------5\|-2-2-x---------5\|-2-2-x---------5\|-2-2-x---------5\|
|-2-2-x---------6\|-2-2-x---------6\|-2-2-x---------6\|-2-2-x---------6\|
|-0-0-x---------6\|-0-0-x---------6\|-0-0-x---------6\|-0-0-x---------6\|
|------1/2/3/4--4\|------1/2/3/4--4\|------1/2/3/4--4\|------1/2/3/4--4\|
      Oh  how   my  death march brings a tear to your eye

  Guitar 1:
|-0-0-x-----------|-0-0-x-----------|-0-0-x-----------|-----------------|
|-2-2-x---------4\|-2-2-x---------4\|-2-2-x--------4-4|-4-4-3-3-3-3-2-2-|
|-2-2-x---------5\|-2-2-x---------5\|-2-2-x--------5-5|-5-5-4-4-4-4-3-3-|
|-2-2-x---------6\|-2-2-x---------6\|-2-2-x--------6-6|-6-6-5-5-5-5-4-4-|
|-0-0-x---------6\|-0-0-x---------6\|-0-0-x--------6-6|-6-6-5-5-5-5-4-4-|
|------1/2/3/4--4\|------1/2/3/4--4\|------1/2/3/4-4-4|-4-4-3-3-3-3-2-2-|
|                 |                 |                 |                 |
| Guitar 2:       |                 |                 |                 |
|-0-0-x-----------|-0-0-x-----------|-0-0-x-----------|-----------------|
|-2-2-x---------4\|-2-2-x---------4\|-2-2-x--------4-4|-4-4-3-3-3-3-2-2-|
|-2-2-x---------5\|-2-2-x---------5\|-2-2-x--------5-5|-5-5-4-4-4-4-3-3-|
|-2-2-x---------6\|-2-2-x---------6\|-2-2-x--------6-6|-6-6-5-5-5-5-4-4-|
|-0-0-x---------6\|-0-0-x---------6\|-0-0-x--------6-6|-6-6-5-5-5-5-4-4-|
|------1/2/3/4--4\|------1/2/3/4--4\|------1/2/3/4-4-4|-4-4-3-3-3-3-2-2-|
      Oh  how  the  noise it swings    when   you      die

  Guitar 1:
|---------|-----------|
|-2-2-2-2-|-2(/)3(/)4-|
|-3-3-3-3-|-3(/)4(/)5-|
|-4-4-4-4-|-4(/)5(/)6-|
|-4-4-4-4-|-4(/)5(/)6-|
|-2-2-2-2-|-2(/)3(/)4-|
|         |           |
| Guitar 2:           |
|---------|-----------|
|-2-2-2-2-|-2(/)3(/)4-|
|-3-3-3-3-|-3(/)4(/)5-|
|-4-4-4-4-|-4(/)5(/)6-|
|-4-4-4-4-|-4(/)5(/)6-|
|-2-2-2-2-|-2(/)3(/)4-|


  Chorus:

  Guitar 1:
|-----------------|-----------------|-----------------|-----------------|
|-6----6----6-6-6-|-0--0-0--0-0-0-0-|-6----6----6-6-6-|-0---0-0---0-0-0-|
|-6----6----6-6-6-|-1--1-1--1-1-1-0-|-6----6----6-6-6-|-1---1-1---1-1-1-|
|-6----6----6-6-6-|-2--2-2--2-2-2-0-|-6----6----6-6-6-|-2---2-2---2-2-2-|
|-4----4----4-4-4-|-2--2-2--2-2-2-0-|-4----4----4-4-4-|-2---2-2---2-2-2-|
|-----------------|-0--0-0--0-0-0-0-|-----------------|-0---0-0---0-0-0-|
|                 |               * |                 |                 |
| Guitar 2:       |               * |                 |                 |
|-----------------|-----------------|-----------------|-----------------|
|-6----6----6-6-6-|-0--0-0--0-0-0-0-|-6----6----6-6-6-|-0---0-0---0-0-0-|
|-6----6----6-6-6-|-1--1-1--1-1-1-0-|-6----6----6-6-6-|-1---1-1---1-1-1-|
|-6----6----6-6-6-|-2--2-2--2-2-2-0-|-6----6----6-6-6-|-2---2-2---2-2-2-|
|-4----4----4-4-4-|-2--2-2--2-2-2-0-|-4----4----4-4-4-|-2---2-2---2-2-2-|
|-----------------|-0--0-0--0-0-0-0-|-----------------|-0---0-0---0-0-0-|
          What a surpriiiiiiiiiise,        what is the priiiiiice  What is

  Guitar 1:
|-----------------|-----------------|-----------------|-----------------|
|-2---2-2---2-3-4-|-5--5-5--5-5-5-0-|-6----6----6-6-6-|-0--0-0--0-0-0-0-|
|-3---3-3---3-4-5-|-6--6-6--6-6-6-0-|-6----6----6-6-6-|-1--1-1--1-1-1-0-|
|-4---4-4---4-5-6-|-7--7-7--7-7-7-0-|-6----6----6-6-6-|-2--2-2--2-2-2-0-|
|-4---4-4---4-5-6-|-7--7-7--7-7-7-0-|-4----4----4-4-4-|-2--2-2--2-2-2-0-|
|-2---2-2---2-3-4-|-5--5-5--5-5-5-0-|-----------------|-0--0-0--0-0-0-0-|
|                 |               * |                 |               * |
| Guitar 2:       |               * |                 |               * |
|-----------------|-----------------|-----------------|-----------------|
|-2---2-2---2-3-4-|-5--5-5--5-5-5-0-|-6----6----6-6-6-|-0--0-0--0-0-0-0-|
|-3---3-3---3-4-5-|-6--6-6--6-6-6-0-|-6----6----6-6-6-|-1--1-1--1-1-1-0-|
|-4---4-4---4-5-6-|-7--7-7--7-7-7-0-|-6----6----6-6-6-|-2--2-2--2-2-2-0-|
|-4---4-4---4-5-6-|-7--7-7--7-7-7-0-|-4----4----4-4-4-|-2--2-2--2-2-2-0-|
|-2---2-2---2-3-4-|-5--5-5--5-5-5-0-|-----------------|-0--0-0--0-0-0-0-|
the price    what is the priiize               What a surpriiiiiiiiiiise

  Guitar 1:
|-----------------|-----------------|-----------------|-----------------|
|-6----6----6-6-6-|-0---0-0---0-0-0-|-2---2-2---2-3-4-|-5--5-5--5-5-5-0-|
|-6----6----6-6-6-|-2---2-2---2-2-2-|-3---3-3---3-4-5-|-6--6-6--6-6-6-0-|
|-6----6----6-6-6-|-2---2-2---2-2-2-|-4---4-4---4-5-6-|-7--7-7--7-7-7-0-|
|-4----4----4-4-4-|-1---1-1---1-1-1-|-4---4-4---4-5-6-|-7--7-7--7-7-7-0-|
|-----------------|-0---0-0---0-0-0-|-2---2-2---2-3-4-|-5--5-5--5-5-5-0-|
|                 |                 |                 |                 |
| Guitar 2:       |                 |                 |                 |
|-----------------|-----------------|-----------------|-----------------|
|-6----6----6-6-6-|-0---0-0---0-0-0-|-2---2-2---2-3-4-|-5--5-5--5-5-5-0-|
|-6----6----6-6-6-|-2---2-2---2-2-2-|-3---3-3---3-4-5-|-6--6-6--6-6-6-0-|
|-6----6----6-6-6-|-2---2-2---2-2-2-|-4---4-4---4-5-6-|-7--7-7--7-7-7-0-|
|-4----4----4-4-4-|-1---1-1---1-1-1-|-4---4-4---4-5-6-|-7--7-7--7-7-7-0-|
|-----------------|-0---0-0---0-0-0-|-2---2-2---2-3-4-|-5--5-5--5-5-5-0-|
    What is the priiice,  what is the price,   what is the priiiiiize

  Verse 2: (solo guitar 2)
  Guitar 1:
|-0-0-x-----------|-0-0-x-----------|-0-0-x-----------|-0-0-x-----------|
|-2-2-x---------4\|-2-2-x---------4\|-2-2-x---------4\|-2-2-x---------4\|
|-2-2-x---------5\|-2-2-x---------5\|-2-2-x---------5\|-2-2-x---------5\|
|-2-2-x---------6\|-2-2-x---------6\|-2-2-x---------6\|-2-2-x---------6\|
|-0-0-x---------6\|-0-0-x---------6\|-0-0-x---------6\|-0-0-x---------6\|
|------1/2/3/4--4\|------1/2/3/4--4\|------1/2/3/4--4\|------1/2/3/4--4\|
|                 |                 |                 |                 |
| Guitar 2:       |                 |                 |                 |
|-----------------|-----------------|-----------------|-----------------|
|-----------------|-----------------|-----------------|-----------------|
|----------8h9~-8~|8/13~-11~-9~\6---|--8/9~-9/11~~~---|-11/13~~~~-----\-|
|-----------------|-----------------|-----------------|-----------------|
|-----------------|-----------------|-----------------|-----------------|
|-----------------|-----------------|-----------------|-----------------|

  Guitar 1:
|-0-0-x-----------|-0-0-x-----------|-0-0-x-----------|-0-0-x-----------|
|-2-2-x---------4\|-2-2-x---------4\|-2-2-x---------4\|-2-2-x---------4\|
|-2-2-x---------5\|-2-2-x---------5\|-2-2-x---------5\|-2-2-x---------5\|
|-2-2-x---------6\|-2-2-x---------6\|-2-2-x---------6\|-2-2-x---------6\|
|-0-0-x---------6\|-0-0-x---------6\|-0-0-x---------6\|-0-0-x---------6\|
|------1/2/3/4--4\|------1/2/3/4--4\|------1/2/3/4--4\|------1/2/3/4--4\|
|                 |                 |                 |                 |
| Guitar 2:       |                 |                 |                 |
|-----------------|-----------------|-----------------|-----------------|
|-----------------|-----------------|-----------------|-----------------|
|-----------------|-----------------|-----------------|----------/8/11/6|
|-----------------|-----------------|-----------------|-----------------|
|-----------------|-----------------|-----------------|-----------------|
|-----------------|-----------------|-----------------|-----------------|
Oh how my heart it splits, when you dumb my eyes

  Guitar 1:
|-0-0-x-----------|-0-0-x-----------|-0-0-x-----------|-0-0-x-----------|
|-2-2-x---------4\|-2-2-x---------4\|-2-2-x---------4\|-2-2-x---------4\|
|-2-2-x---------5\|-2-2-x---------5\|-2-2-x---------5\|-2-2-x---------5\|
|-2-2-x---------6\|-2-2-x---------6\|-2-2-x---------6\|-2-2-x---------6\|
|-0-0-x---------6\|-0-0-x---------6\|-0-0-x---------6\|-0-0-x---------6\|
|------1/2/3/4--4\|------1/2/3/4--4\|------1/2/3/4--4\|------1/2/3/4--4\|
|                 |                 |                 |                 |
| Guitar 2:       |                 |                 |                 |
|-0-0-x-----------|-0-0-x-----------|-0-0-x-----------|-0-0-x-----------|
|-2-2-x---------4\|-2-2-x---------4\|-2-2-x---------4\|-2-2-x---------4\|
|-2-2-x---------5\|-2-2-x---------5\|-2-2-x---------5\|-2-2-x---------5\|
|-2-2-x---------6\|-2-2-x---------6\|-2-2-x---------6\|-2-2-x---------6\|
|-0-0-x---------6\|-0-0-x---------6\|-0-0-x---------6\|-0-0-x---------6\|
|------1/2/3/4--4\|------1/2/3/4--4\|------1/2/3/4--4\|------1/2/3/4--4\|
Oh how my gallow sinks, of red dye

  Guitar 1:
|-0-0-x-----------|-0-0-x-----------|-0-0-x-----------|-0-0-x-----------|
|-2-2-x---------4\|-2-2-x---------4\|-2-2-x---------4\|-2-2-x---------4\|
|-2-2-x---------5\|-2-2-x---------5\|-2-2-x---------5\|-2-2-x---------5\|
|-2-2-x---------6\|-2-2-x---------6\|-2-2-x---------6\|-2-2-x---------6\|
|-0-0-x---------6\|-0-0-x---------6\|-0-0-x---------6\|-0-0-x---------6\|
|------1/2/3/4--4\|------1/2/3/4--4\|------1/2/3/4--4\|------1/2/3/4--4\|
|                 |                 |                 |                 |
| Guitar 2:       |                 |                 |                 |
|-0-0-x-----------|-0-0-x-----------|-0-0-x-----------|-0-0-x-----------|
|-2-2-x---------4\|-2-2-x---------4\|-2-2-x---------4\|-2-2-x---------4\|
|-2-2-x---------5\|-2-2-x---------5\|-2-2-x---------5\|-2-2-x---------5\|
|-2-2-x---------6\|-2-2-x---------6\|-2-2-x---------6\|-2-2-x---------6\|
|-0-0-x---------6\|-0-0-x---------6\|-0-0-x---------6\|-0-0-x---------6\|
|------1/2/3/4--4\|------1/2/3/4--4\|------1/2/3/4--4\|------1/2/3/4--4\|
      Oh   how  the noose it smiles,      when     you  lie

  Guitar 1:
|-0-0-x-----------|-0-0-x-----------|-0-0-x-----------|-----------------|
|-2-2-x---------4\|-2-2-x---------4\|-2-2-x--------4-4|-4-4-3-3-3-3-2-2-|
|-2-2-x---------5\|-2-2-x---------5\|-2-2-x--------5-5|-5-5-4-4-4-4-3-3-|
|-2-2-x---------6\|-2-2-x---------6\|-2-2-x--------6-6|-6-6-5-5-5-5-4-4-|
|-0-0-x---------6\|-0-0-x---------6\|-0-0-x--------6-6|-6-6-5-5-5-5-4-4-|
|------1/2/3/4--4\|------1/2/3/4--4\|------1/2/3/4-4-4|-4-4-3-3-3-3-2-2-|
|                 |                 |                 |                 |
| Guitar 2:       |                 |                 |                 |
|-0-0-x-----------|-0-0-x-----------|-0-0-x-----------|-----------------|
|-2-2-x---------4\|-2-2-x---------4\|-2-2-x--------4-4|-4-4-3-3-3-3-2-2-|
|-2-2-x---------5\|-2-2-x---------5\|-2-2-x--------5-5|-5-5-4-4-4-4-3-3-|
|-2-2-x---------6\|-2-2-x---------6\|-2-2-x--------6-6|-6-6-5-5-5-5-4-4-|
|-0-0-x---------6\|-0-0-x---------6\|-0-0-x--------6-6|-6-6-5-5-5-5-4-4-|
|------1/2/3/4--4\|------1/2/3/4--4\|------1/2/3/4-4-4|-4-4-3-3-3-3-2-2-|
      Oh   how my  womb it licks,    when you dig  deep inside

  Guitar 1:
|---------|-----------|
|-2-2-2-2-|-2(/)3(/)4-|
|-3-3-3-3-|-3(/)4(/)5-|
|-4-4-4-4-|-4(/)5(/)6-|
|-4-4-4-4-|-4(/)5(/)6-|
|-2-2-2-2-|-2(/)3(/)4-|
|         |           |
| Guitar 2:           |
|---------|-----------|
|-2-2-2-2-|-2(/)3(/)4-|
|-3-3-3-3-|-3(/)4(/)5-|
|-4-4-4-4-|-4(/)5(/)6-|
|-4-4-4-4-|-4(/)5(/)6-|
|-2-2-2-2-|-2(/)3(/)4-|


  Chorus:

  Guitar 1:
|-----------------|-----------------|-----------------|-----------------|
|-6----6----6-6-6-|-0--0-0--0-0-0-0-|-6----6----6-6-6-|-0---0-0---0-0-0-|
|-6----6----6-6-6-|-1--1-1--1-1-1-0-|-6----6----6-6-6-|-1---1-1---1-1-1-|
|-6----6----6-6-6-|-2--2-2--2-2-2-0-|-6----6----6-6-6-|-2---2-2---2-2-2-|
|-4----4----4-4-4-|-2--2-2--2-2-2-0-|-4----4----4-4-4-|-2---2-2---2-2-2-|
|-----------------|-0--0-0--0-0-0-0-|-----------------|-0---0-0---0-0-0-|
|                 |               * |                 |                 |
| Guitar 2:       |               * |                 |                 |
|-----------------|-----------------|-----------------|-----------------|
|-6----6----6-6-6-|-0--0-0--0-0-0-0-|-6----6----6-6-6-|-0---0-0---0-0-0-|
|-6----6----6-6-6-|-1--1-1--1-1-1-0-|-6----6----6-6-6-|-1---1-1---1-1-1-|
|-6----6----6-6-6-|-2--2-2--2-2-2-0-|-6----6----6-6-6-|-2---2-2---2-2-2-|
|-4----4----4-4-4-|-2--2-2--2-2-2-0-|-4----4----4-4-4-|-2---2-2---2-2-2-|
|-----------------|-0--0-0--0-0-0-0-|-----------------|-0---0-0---0-0-0-|
          What a surpriiiiiiiiiise,        what is the priiiiiice  What is

  Guitar 1:
|-----------------|-----------------|-----------------|-----------------|
|-2---2-2---2-3-4-|-5--5-5--5-5-5-0-|-6----6----6-6-6-|-0--0-0--0-0-0-0-|
|-3---3-3---3-4-5-|-6--6-6--6-6-6-0-|-6----6----6-6-6-|-1--1-1--1-1-1-0-|
|-4---4-4---4-5-6-|-7--7-7--7-7-7-0-|-6----6----6-6-6-|-2--2-2--2-2-2-0-|
|-4---4-4---4-5-6-|-7--7-7--7-7-7-0-|-4----4----4-4-4-|-2--2-2--2-2-2-0-|
|-2---2-2---2-3-4-|-5--5-5--5-5-5-0-|-----------------|-0--0-0--0-0-0-0-|
|                 |               * |                 |               * |
| Guitar 2:       |               * |                 |               * |
|-----------------|-----------------|-----------------|-----------------|
|-2---2-2---2-3-4-|-5--5-5--5-5-5-0-|-6----6----6-6-6-|-0--0-0--0-0-0-0-|
|-3---3-3---3-4-5-|-6--6-6--6-6-6-0-|-6----6----6-6-6-|-1--1-1--1-1-1-0-|
|-4---4-4---4-5-6-|-7--7-7--7-7-7-0-|-6----6----6-6-6-|-2--2-2--2-2-2-0-|
|-4---4-4---4-5-6-|-7--7-7--7-7-7-0-|-4----4----4-4-4-|-2--2-2--2-2-2-0-|
|-2---2-2---2-3-4-|-5--5-5--5-5-5-0-|-----------------|-0--0-0--0-0-0-0-|
the price    what is the priiize               What a surpriiiiiiiiiiise
[ Tab from: http://www.guitartabs.cc/tabs/d/distillers/gallow_is_god_tab_ver_2.html ]
  Guitar 1:
|-----------------|-----------------|-----------------|-----------------|
|-6----6----6-6-6-|-0---0-0---0-0-0-|-2---2-2---2-3-4-|-5--5-5--5-5-5-0-|
|-6----6----6-6-6-|-2---2-2---2-2-2-|-3---3-3---3-4-5-|-6--6-6--6-6-6-0-|
|-6----6----6-6-6-|-2---2-2---2-2-2-|-4---4-4---4-5-6-|-7--7-7--7-7-7-0-|
|-4----4----4-4-4-|-1---1-1---1-1-1-|-4---4-4---4-5-6-|-7--7-7--7-7-7-0-|
|-----------------|-0---0-0---0-0-0-|-2---2-2---2-3-4-|-5--5-5--5-5-5-0-|
|                 |                 |                 |                 |
| Guitar 2:       |                 |                 |                 |
|-----------------|-----------------|-----------------|-----------------|
|-6----6----6-6-6-|-0---0-0---0-0-0-|-2---2-2---2-3-4-|-5--5-5--5-5-5-0-|
|-6----6----6-6-6-|-2---2-2---2-2-2-|-3---3-3---3-4-5-|-6--6-6--6-6-6-0-|
|-6----6----6-6-6-|-2---2-2---2-2-2-|-4---4-4---4-5-6-|-7--7-7--7-7-7-0-|
|-4----4----4-4-4-|-1---1-1---1-1-1-|-4---4-4---4-5-6-|-7--7-7--7-7-7-0-|
|-----------------|-0---0-0---0-0-0-|-2---2-2---2-3-4-|-5--5-5--5-5-5-0-|
    What is the priiice,  what is the price,   what is the priiiiiize

  Guitar 1:
|-----------------|-----------------|-----------------|-----------------|
|-6----6----6-6-6-|-0--0-0--0-0-0-0-|-6----6----6-6-6-|-0---0-0---0-0-0-|
|-6----6----6-6-6-|-1--1-1--1-1-1-0-|-6----6----6-6-6-|-1---1-1---1-1-1-|
|-6----6----6-6-6-|-2--2-2--2-2-2-0-|-6----6----6-6-6-|-2---2-2---2-2-2-|
|-4----4----4-4-4-|-2--2-2--2-2-2-0-|-4----4----4-4-4-|-2---2-2---2-2-2-|
|-----------------|-0--0-0--0-0-0-0-|-----------------|-0---0-0---0-0-0-|
|                 |               * |                 |                 |
| Guitar 2:       |               * |                 |                 |
|-----------------|-----------------|-----------------|-----------------|
|-6----6----6-6-6-|-0--0-0--0-0-0-0-|-6----6----6-6-6-|-0---0-0---0-0-0-|
|-6----6----6-6-6-|-1--1-1--1-1-1-0-|-6----6----6-6-6-|-1---1-1---1-1-1-|
|-6----6----6-6-6-|-2--2-2--2-2-2-0-|-6----6----6-6-6-|-2---2-2---2-2-2-|
|-4----4----4-4-4-|-2--2-2--2-2-2-0-|-4----4----4-4-4-|-2---2-2---2-2-2-|
|-----------------|-0--0-0--0-0-0-0-|-----------------|-0---0-0---0-0-0-|


|-----------------|-----------------|-----------------|-----------------|
|-2---2-2---2-3-4-|-5--5-5-5-5-5-5-5|-6-6-6-6-6-6-6-6-|-6-6-6-6-6-6-6-6-|
|-3---3-3---3-4-5-|-6--6-6-6-6-6-6-6|-6-6-6-6-6-6-6-6-|-6-6-6-6-6-6-6-6-|
|-4---4-4---4-5-6-|-7--7-7-7-7-7-7-7|-6-6-6-6-6-6-6-6-|-6-6-6-6-6-6-6-6-|
|-4---4-4---4-5-6-|-7--7-7-7-7-7-7-7|-4-4-4-4-4-4-4-4-|-4-4-4-4-4-4-4-4-|
|-2---2-2---2-3-4-|-5--5-5-5-5-5-5-5|-----------------|-----------------|
|                 |                 |                 |                 |
|                 |                 |                 |                 |
|-----------------|-----------------|-----------------|-----------------|
|-2---2-2---2-3-4-|-5--5-5-5-5-5-5-5|-6-6-6-6-6-6-6-6-|-6-6-6-6-6-6-6-6-|
|-3---3-3---3-4-5-|-6--6-6-6-6-6-6-6|-6-6-6-6-6-6-6-6-|-6-6-6-6-6-6-6-6-|
|-4---4-4---4-5-6-|-7--7-7-7-7-7-7-7|-6-6-6-6-6-6-6-6-|-6-6-6-6-6-6-6-6-|
|-4---4-4---4-5-6-|-7--7-7-7-7-7-7-7|-4-4-4-4-4-4-4-4-|-4-4-4-4-4-4-4-4-|
|-2---2-2---2-3-4-|-5--5-5-5-5-5-5-5|-----------------|-----------------|


  Guitar 1:
|-----------------|-----------------|-----------------|-----------------|
|-5-5-5-5-5-5-5-5-|-4-4-4-4-4-4-4-4-|-2-2-2-2-2-2-2-2-|-2-2-2-2-2-2-2-2-|
|-6-6-6-6-6-6-6-6-|-5-5-5-5-5-5-5-5-|-3-3-3-3-3-3-3-3-|-3-3-3-3-3-3-3-3-|
|-7-7-7-7-7-7-7-7-|-6-6-6-6-6-6-6-6-|-4-4-4-4-4-4-4-4-|-4-4-4-4-4-4-4-4-|
|-7-7-7-7-7-7-7-7-|-6-6-6-6-6-6-6-6-|-4-4-4-4-4-4-4-4-|-4-4-4-4-4-4-4-4-|
|-5-5-5-5-5-5-5-5-|-4-4-4-4-4-4-4-4-|-2-2-2-2-2-2-2-2-|-2-2-2-2-2-2-2-2-|
| * * * * * * * * | * * * * * * * * | * * * * * * * * | * * * * * * * * |
| Guitar 2:       |                 |                 |                 |
|-----------------|-----------------|-----------------|-----------------|
|-----------------|-----------------|-----------------|-----------------|
|-----------------|-----------------|-----------------|-----------------|
|---7-------7-----|---6-------6-----|---4-------4-----|---4-------4-----|
|-----7-------7---|-----6-------6---|-----4-------4---|-----4-------4---|
|-5-------5-------|-4-------4-------|-2-------2-------|-2-------2-------|
          Do   you  do   it,    oh    yeah

  Guitar 1:
|-----------------|-----------------|-----------------|-----------------|
|-5-5-5-5-5-5-5-5-|-4-4-4-4-4-4-4-4-|-2-2-2-2-2-2-2-2-|-2-2-2-2-2-2-2-2-|
|-6-6-6-6-6-6-6-6-|-5-5-5-5-5-5-5-5-|-3-3-3-3-3-3-3-3-|-3-3-3-3-3-3-3-3-|
|-7-7-7-7-7-7-7-7-|-6-6-6-6-6-6-6-6-|-4-4-4-4-4-4-4-4-|-4-4-4-4-4-4-4-4-|
|-7-7-7-7-7-7-7-7-|-6-6-6-6-6-6-6-6-|-4-4-4-4-4-4-4-4-|-4-4-4-4-4-4-4-4-|
|-5-5-5-5-5-5-5-5-|-4-4-4-4-4-4-4-4-|-2-2-2-2-2-2-2-2-|-2-2-2-2-2-2-2-2-|
| * * * * * * * * | * * * * * * * * | * * * * * * * * | * * * * * * * * |
| Guitar 2:       |                 |                 |                 |
|-----------------|-----------------|-----------------|-----------------|
|-----------------|-----------------|-----------------|-----------------|
|-----------------|-----------------|-----------------|-----------------|
|---7-------7-----|---6-------6-----|---4-------4-----|---4-------4-----|
|-----7-------7---|-----6-------6---|-----4-------4---|-----4-------4---|
|-5-------5-------|-4-------4-------|-2-------2-------|-2-------2-------|
          Do   you  feed it,    oh    yeah

  Guitar 1:
|-----------------|-----------------|-----------------|-----------------|
|-5-5-5-5-5-5-5-5-|-4-4-4-4-4-4-4-4-|-2-2-2-2-2-2-2-2-|-2-2-2-2-2-2-2-2-|
|-6-6-6-6-6-6-6-6-|-5-5-5-5-5-5-5-5-|-3-3-3-3-3-3-3-3-|-3-3-3-3-3-3-3-3-|
|-7-7-7-7-7-7-7-7-|-6-6-6-6-6-6-6-6-|-4-4-4-4-4-4-4-4-|-4-4-4-4-4-4-4-4-|
|-7-7-7-7-7-7-7-7-|-6-6-6-6-6-6-6-6-|-4-4-4-4-4-4-4-4-|-4-4-4-4-4-4-4-4-|
|-5-5-5-5-5-5-5-5-|-4-4-4-4-4-4-4-4-|-2-2-2-2-2-2-2-2-|-2-2-2-2-2-2-2-2-|
| * * * * * * * * | * * * * * * * * | * * * * * * * * | * * * * * * * * |
| Guitar 2:       |                 |                 |                 |
|-----------------|-----------------|-----------------|-----------------|
|-5-5-5-5-5-5-5-5-|-4-4-4-4-4-4-4-4-|-2-2-2-2-2-2-2-2-|-2-2-2-2-2-2-2-2-|
|-6-6-6-6-6-6-6-6-|-5-5-5-5-5-5-5-5-|-3-3-3-3-3-3-3-3-|-3-3-3-3-3-3-3-3-|
|-7-7-7-7-7-7-7-7-|-6-6-6-6-6-6-6-6-|-4-4-4-4-4-4-4-4-|-4-4-4-4-4-4-4-4-|
|-7-7-7-7-7-7-7-7-|-6-6-6-6-6-6-6-6-|-4-4-4-4-4-4-4-4-|-4-4-4-4-4-4-4-4-|
|-5-5-5-5-5-5-5-5-|-4-4-4-4-4-4-4-4-|-2-2-2-2-2-2-2-2-|-2-2-2-2-2-2-2-2-|
| * * * * * * * * | * * * * * * * * | * * * * * * * * | * * * * * * * * |
          Do   you  sell it,    oh    yeah

  Guitar 1:
|-----------------|-----------------|-----------------|-----------------|
|-5-5-5-5-5-5-5-5-|-4-4-4-4-4-4-4-4-|-2-2-2-2-2-2-2-2-|-2-2-2-2---2/3/4-|
|-6-6-6-6-6-6-6-6-|-5-5-5-5-5-5-5-5-|-3-3-3-3-3-3-3-3-|-3-3-3-3---3/4/5-|
|-7-7-7-7-7-7-7-7-|-6-6-6-6-6-6-6-6-|-4-4-4-4-4-4-4-4-|-4-4-4-4---4/5/6-|
|-7-7-7-7-7-7-7-7-|-6-6-6-6-6-6-6-6-|-4-4-4-4-4-4-4-4-|-4-4-4-4---4/5/6-|
|-5-5-5-5-5-5-5-5-|-4-4-4-4-4-4-4-4-|-2-2-2-2-2-2-2-2-|-2-2-2-2---2/3/4-|
| * * * * * * * * | * * * * * * * * | * * * * * * * * | * * * * * * * * |
| Guitar 2:       |                 |                 |                 |
|-----------------|-----------------|-----------------|-----------------|
|-5-5-5-5-5-5-5-5-|-4-4-4-4-4-4-4-4-|-2-2-2-2-2-2-2-2-|-2-2-2-2---2/3/4-|
|-6-6-6-6-6-6-6-6-|-5-5-5-5-5-5-5-5-|-3-3-3-3-3-3-3-3-|-3-3-3-3---3/4/5-|
|-7-7-7-7-7-7-7-7-|-6-6-6-6-6-6-6-6-|-4-4-4-4-4-4-4-4-|-4-4-4-4---4/5/6-|
|-7-7-7-7-7-7-7-7-|-6-6-6-6-6-6-6-6-|-4-4-4-4-4-4-4-4-|-4-4-4-4---4/5/6-|
|-5-5-5-5-5-5-5-5-|-4-4-4-4-4-4-4-4-|-2-2-2-2-2-2-2-2-|-2-2-2-2---2/3/4-|
| * * * * * * * * | * * * * * * * * | * * * * * * * * | * * * * * * * * |
          Do   you  need it,  oh      yeah


  Guitar 1:
|-----------------|-----------------|-----------------|-----------------|
|-6----6----6-6-6-|-0---0-0---0-0-0-|-5----5----5-5-5-|-2---2-2--2-2-2-2|
|-6----6----6-6-6-|-1---1-1---1-1-1-|-6----6----6-6-6-|-3---3-3--3-3-3-3|
|-6----6----6-6-6-|-2---2-2---2-2-2-|-7----7----7-7-7-|-4---4-4--4-4-4-4|
|-4----4----4-4-4-|-2---2-2---2-2-2-|-7----7----7-7-7-|-4---4-4--4-4-4-4|
|-----------------|-0---0-0---0-0-0-|-5----5----5-5-5-|-2---2-2--2-2-2-2|
|                 |                 |                 |                 |
| Guitar 2:       |                 |                 |                 |
|-----------------|-----------------|-----------------|-----------------|
|-6----6----6-6-6-|-0---0-0---0-0-0-|-5----5----5-5-5-|-2---2-2--2-2-2-2|
|-6----6----6-6-6-|-1---1-1---1-1-1-|-6----6----6-6-6-|-3---3-3--3-3-3-3|
|-6----6----6-6-6-|-2---2-2---2-2-2-|-7----7----7-7-7-|-4---4-4--4-4-4-4|
|-4----4----4-4-4-|-2---2-2---2-2-2-|-7----7----7-7-7-|-4---4-4--4-4-4-4|
|-----------------|-0---0-0---0-0-0-|-5----5----5-5-5-|-2---2-2--2-2-2-2|
            In      the  sun      the willows   give    you   shade

  Guitar 1:
|-----------------|-----------------|-----------------|-----------------|
|-6----6----6-6-6-|-0---0-0---0-0-0-|-5----5----5-5-5-|-2---2-2--2-2-2-2|
|-6----6----6-6-6-|-1---1-1---1-1-1-|-6----6----6-6-6-|-3---3-3--3-3-3-3|
|-6----6----6-6-6-|-2---2-2---2-2-2-|-7----7----7-7-7-|-4---4-4--4-4-4-4|
|-4----4----4-4-4-|-2---2-2---2-2-2-|-7----7----7-7-7-|-4---4-4--4-4-4-4|
|-----------------|-0---0-0---0-0-0-|-5----5----5-5-5-|-2---2-2--2-2-2-2|
|                 |                 |                 |                 |
| Guitar 2:       |                 |                 |                 |
|-----------------|-----------------|-----------------|-----------------|
|-6----6----6-6-6-|-0---0-0---0-0-0-|-5----5----5-5-5-|-2---2-2--2-2-2-2|
|-6----6----6-6-6-|-1---1-1---1-1-1-|-6----6----6-6-6-|-3---3-3--3-3-3-3|
|-6----6----6-6-6-|-2---2-2---2-2-2-|-7----7----7-7-7-|-4---4-4--4-4-4-4|
|-4----4----4-4-4-|-2---2-2---2-2-2-|-7----7----7-7-7-|-4---4-4--4-4-4-4|
|-----------------|-0---0-0---0-0-0-|-5----5----5-5-5-|-2---2-2--2-2-2-2|
       Oh,  how    they hang    like  guillotine        blades in the sun

  Guitar 1:
|-----------------|-----------------|-----------------|-----------------|
|-6----6----6-6-6-|-0---0-0---0-0-0-|-5----5----5-5-5-|-2---2-2--2-2-2-2|
|-6----6----6-6-6-|-1---1-1---1-1-1-|-6----6----6-6-6-|-3---3-3--3-3-3-3|
|-6----6----6-6-6-|-2---2-2---2-2-2-|-7----7----7-7-7-|-4---4-4--4-4-4-4|
|-4----4----4-4-4-|-2---2-2---2-2-2-|-7----7----7-7-7-|-4---4-4--4-4-4-4|
|-----------------|-0---0-0---0-0-0-|-5----5----5-5-5-|-2---2-2--2-2-2-2|
|                 |                 |                 |                 |
| Guitar 2:       |                 |                 |                 |
|-----------------|-----------------|-----------------|-----------------|
|-6----6----6-6-6-|-0---0-0---0-0-0-|-5----5----5-5-5-|-2---2-2--2-2-2-2|
|-6----6----6-6-6-|-1---1-1---1-1-1-|-6----6----6-6-6-|-3---3-3--3-3-3-3|
|-6----6----6-6-6-|-2---2-2---2-2-2-|-7----7----7-7-7-|-4---4-4--4-4-4-4|
|-4----4----4-4-4-|-2---2-2---2-2-2-|-7----7----7-7-7-|-4---4-4--4-4-4-4|
|-----------------|-0---0-0---0-0-0-|-5----5----5-5-5-|-2---2-2--2-2-2-2|
            In      the    sun    the willows   give    you  shade,oh yeah


  Guitar 1:
|-----------------|-----------------|-----------------|-----------------|
|-6----6----6-6-6-|-0---0-0---0-0-0-|-5----5----5-5-5-|-2---2-2--2-3-4--|
|-6----6----6-6-6-|-1---1-1---1-1-1-|-6----6----6-6-6-|-3---3-3--3-4-5--|
|-6----6----6-6-6-|-2---2-2---2-2-2-|-7----7----7-7-7-|-4---4-4--4-5-6--|
|-4----4----4-4-4-|-2---2-2---2-2-2-|-7----7----7-7-7-|-4---4-4--4-5-6--|
|-----------------|-0---0-0---0-0-0-|-5----5----5-5-5-|-2---2-2--2-3-4--|
|                 |                 |                 |                 |
| Guitar 2:       |                 |                 |                 |
|-----------------|-----------------|-----------------|-----------------|
|-6----6----6-6-6-|-0---0-0---0-0-0-|-5----5----5-5-5-|-2---2-2--2-3-4--|
|-6----6----6-6-6-|-1---1-1---1-1-1-|-6----6----6-6-6-|-3---3-3--3-4-5--|
|-6----6----6-6-6-|-2---2-2---2-2-2-|-7----7----7-7-7-|-4---4-4--4-5-6--|
|-4----4----4-4-4-|-2---2-2---2-2-2-|-7----7----7-7-7-|-4---4-4--4-5-6--|
|-----------------|-0---0-0---0-0-0-|-5----5----5-5-5-|-2---2-2--2-3-4--|
            how     they  hang   like guillotine        blades   in the



  Guitar 1:
|-----------------|-----------------|-----------------|-----------------|
|-5-5-5-5-5-5-5-5-|-2-2-2-2-2-2-2-2-|-5-5-5-5-5-5-5-5-|-2-2-2-2-2-2-2-2-|
|-6-6-6-6-6-6-6-6-|-3-3-3-3-3-3-3-3-|-6-6-6-6-6-6-6-6-|-3-3-3-3-3-3-3-3-|
|-7-7-7-7-7-7-7-7-|-4-4-4-4-4-4-4-4-|-7-7-7-7-7-7-7-7-|-4-4-4-4-4-4-4-4-|
|-7-7-7-7-7-7-7-7-|-4-4-4-4-4-4-4-4-|-7-7-7-7-7-7-7-7-|-4-4-4-4-4-4-4-4-|
|-5-5-5-5-5-5-5-5-|-2-2-2-2-2-2-2-2-|-5-5-5-5-5-5-5-5-|-2-2-2-2-2-2-2-2-|
|                 |                 |                 |                 |
| Guitar 2:       |                 |                 |                 |
|-----------------|-----------------|-----------------|-----------------|
|-5-5-5-5-5-5-5-5-|-2-2-2-2-2-2/3/4-|-5-5-5-5-5-5-5-5-|-2-2-2-2-2-2-2-2-|
|-6-6-6-6-6-6-6-6-|-3-3-3-3-3-3/4/5-|-6-6-6-6-6-6-6-6-|-3-3-3-3-3-3-3-3-|
|-7-7-7-7-7-7-7-7-|-4-4-4-4-4-4/5/6-|-7-7-7-7-7-7-7-7-|-4-4-4-4-4-4-4-4-|
|-7-7-7-7-7-7-7-7-|-4-4-4-4-4-4/5/6-|-7-7-7-7-7-7-7-7-|-4-4-4-4-4-4-4-4-|
|-5-5-5-5-5-5-5-5-|-2-2-2-2-2-2/3/4-|-5-5-5-5-5-5-5-5-|-2-2-2-2-2-2-2-2-|
 sun,     like  a   blade     in the sun      like  a   blade


  Guitar 1:
|-----------------|-----------------|
|-2-2-2-2-2-2-2-2-|-2-2-2-2-2-2/3/4-|
|-3-3-3-3-3-3-3-3-|-3-3-3-3-3-3/4/5-|
|-4-4-4-4-4-4-4-4-|-4-4-4-4-4-4/5/6-|
|-4-4-4-4-4-4-4-4-|-4-4-4-4-4-4/5/6-|
|-2-2-2-2-2-2-2-2-|-2-2-2-2-2-2/3/4-|
|                 |                 |
|                 |                 |
|-----------------|-----------------|
|-2-2-2-2-2-2-2-2-|-2-2-2-2-2-2/3/4-|
|-3-3-3-3-3-3-3-3-|-3-3-3-3-3-3/4/5-|
|-4-4-4-4-4-4-4-4-|-4-4-4-4-4-4/5/6-|
|-4-4-4-4-4-4-4-4-|-4-4-4-4-4-4/5/6-|
|-2-2-2-2-2-2-2-2-|-2-2-2-2-2-2/3/4-|
  aaaaaah

  Chorus:

  Guitar 1:
|-----------------|-----------------|-----------------|-----------------|
|-6----6----6-6-6-|-0--0-0--0-0-0-0-|-2----2----2-2-2-|-5--5-5--5-5-5-0-|
|-6----6----6-6-6-|-1--1-1--1-1-1-0-|-3----3----3-3-3-|-6--6-6--6-6-6-0-|
|-6----6----6-6-6-|-2--2-2--2-2-2-0-|-4----4----4-4-4-|-7--7-7--7-7-7-0-|
|-4----4----4-4-4-|-2--2-2--2-2-2-0-|-4----4----4-4-4-|-7--7-7--7-7-7-0-|
|-----------------|-0--0-0--0-0-0-0-|-2----2----2/3/4-|-5--5-5--5-5-5-0-|
|                 |               * |                 |               * |
| Guitar 2:       |               * |                 |               * |
|-----------------|-----------------|-----------------|-----------------|
|-6----6----6-6-6-|-0--0-0--0-0-0-0-|-2----2----2-2-2-|-5--5-5--5-5-5-0-|
|-6----6----6-6-6-|-1--1-1--1-1-1-0-|-3----3----3-3-3-|-6--6-6--6-6-6-0-|
|-6----6----6-6-6-|-2--2-2--2-2-2-0-|-4----4----4-4-4-|-7--7-7--7-7-7-0-|
|-4----4----4-4-4-|-2--2-2--2-2-2-0-|-4----4----4-4-4-|-7--7-7--7-7-7-0-|
|-----------------|-0--0-0--0-0-0-0-|-2----2----2/3/4-|-5--5-5--5-5-5-0-|
          What a surpriiiiiiiiiise,        what is the priiiiiice  What is

  Guitar 1:
|-----------------|-----------------|-----------------|-----------------|
|-6----6----6-6-6-|-0--0-0--0-0-0-0-|-2----2----2-2-2-|-5--5-5--5-5-5-0-|
|-6----6----6-6-6-|-1--1-1--1-1-1-0-|-3----3----3-3-3-|-6--6-6--6-6-6-0-|
|-6----6----6-6-6-|-2--2-2--2-2-2-0-|-4----4----4-4-4-|-7--7-7--7-7-7-0-|
|-4----4----4-4-4-|-2--2-2--2-2-2-0-|-4----4----4-4-4-|-7--7-7--7-7-7-0-|
|-----------------|-0--0-0--0-0-0-0-|-2----2----2/3/4-|-5--5-5--5-5-5-0-|
|                 |               * |                 |               * |
| Guitar 2:       |               * |                 |               * |
|-----------------|-----------------|-----------------|-----------------|
|-6----6----6-6-6-|-0--0-0--0-0-0-0-|-2----2----2-2-2-|-5--5-5--5-5-5-0-|
|-6----6----6-6-6-|-1--1-1--1-1-1-0-|-3----3----3-3-3-|-6--6-6--6-6-6-0-|
|-6----6----6-6-6-|-2--2-2--2-2-2-0-|-4----4----4-4-4-|-7--7-7--7-7-7-0-|
|-4----4----4-4-4-|-2--2-2--2-2-2-0-|-4----4----4-4-4-|-7--7-7--7-7-7-0-|
|-----------------|-0--0-0--0-0-0-0-|-2----2----2/3/4-|-5--5-5--5-5-5-0-|
the price    what is the priiize               What a surpriiiiiiiiiiise

  Guitar 1:
|-----------------|-----------------|-----------------|-----------------|
|-6----6----6-6-6-|-0--0-0--0-0-0-0-|-2----2----2-2-2-|-5--5-5--5-5-5-0-|
|-6----6----6-6-6-|-1--1-1--1-1-1-0-|-3----3----3-3-3-|-6--6-6--6-6-6-0-|
|-6----6----6-6-6-|-2--2-2--2-2-2-0-|-4----4----4-4-4-|-7--7-7--7-7-7-0-|
|-4----4----4-4-4-|-2--2-2--2-2-2-0-|-4----4----4-4-4-|-7--7-7--7-7-7-0-|
|-----------------|-0--0-0--0-0-0-0-|-2----2----2/3/4-|-5--5-5--5-5-5-0-|
|                 |               * |                 |               * |
| Guitar 2:       |               * |                 |               * |
|-----------------|-----------------|-----------------|-----------------|
|-6----6----6-6-6-|-0--0-0--0-0-0-0-|-2----2----2-2-2-|-5--5-5--5-5-5-0-|
|-6----6----6-6-6-|-1--1-1--1-1-1-0-|-3----3----3-3-3-|-6--6-6--6-6-6-0-|
|-6----6----6-6-6-|-2--2-2--2-2-2-0-|-4----4----4-4-4-|-7--7-7--7-7-7-0-|
|-4----4----4-4-4-|-2--2-2--2-2-2-0-|-4----4----4-4-4-|-7--7-7--7-7-7-0-|
|-----------------|-0--0-0--0-0-0-0-|-2----2----2/3/4-|-5--5-5--5-5-5-0-|
    What is the priiice,  what is the price,   what is the priiiiiize

  Guitar 1:
|-----------------|-----------------|-----------------|-----------------|
|-6----6----6-6-6-|-0--0-0--0-0-0-0-|-2----2----2-2-2-|-5--5-5--5-5-5-0-|
|-6----6----6-6-6-|-1--1-1--1-1-1-0-|-3----3----3-3-3-|-6--6-6--6-6-6-0-|
|-6----6----6-6-6-|-2--2-2--2-2-2-0-|-4----4----4-4-4-|-7--7-7--7-7-7-0-|
|-4----4----4-4-4-|-2--2-2--2-2-2-0-|-4----4----4-4-4-|-7--7-7--7-7-7-0-|
|-----------------|-0--0-0--0-0-0-0-|-2----2----2/3/4-|-5--5-5--5-5-5-0-|
|                 |               * |                 |               * |
| Guitar 2:       |               * |                 |               * |
|-----------------|-----------------|-----------------|-----------------|
|-6----6----6-6-6-|-0--0-0--0-0-0-0-|-2----2----2-2-2-|-5--5-5--5-5-5-0-|
|-6----6----6-6-6-|-1--1-1--1-1-1-0-|-3----3----3-3-3-|-6--6-6--6-6-6-0-|
|-6----6----6-6-6-|-2--2-2--2-2-2-0-|-4----4----4-4-4-|-7--7-7--7-7-7-0-|
|-4----4----4-4-4-|-2--2-2--2-2-2-0-|-4----4----4-4-4-|-7--7-7--7-7-7-0-|
|-----------------|-0--0-0--0-0-0-0-|-2----2----2/3/4-|-5--5-5--5-5-5-0-|
    What is the priiice,  what is the price,   what is the priiiiiize

  Guitar 1:
|-0-0-x----------x|
|-2-2-x--------44x|
|-2-2-x--------55x|
|-2-2-x--------66x|
|-0-0-x--------66x|
|------1/2/3/4-44x|
|                 |
| Guitar 2:       |
|----------------x|
|----------------x|
|----------------x|
|----------------x|
|----------------x|
|----------------x|


Lyrics:

Oh how my heart it sings suicide
Oh how my gallow sinks of black dye
Oh how my death march brings a tear to your eye,
Oh how the noose it swings when you die.

What a surprise, what is the price, 
what is the price, what is the prize?
What a surprise, what is the price, 
what is the price, what is the prize?

Oh how my heart it splits when you dumb my eyes,
Oh how my gallow sinks of red dye.
Oh how the noose it smiles when you lie,
Oh how my womb it licks when you dig deep inside.

What a surprise, what is the price, 
what is the price, what is the prize?
What a surprise, what is the price, 
what is the price, what is the prize?

Do you do it, oh yeah do you feed it, oh yeah, 
Do you sell it, oh yeah, do you need it, oh yeah

In the sun the willows give you shade 
Oh, how they hang like guillotine blades in the sun
In the sun the willows give you shade 
Oh yeah, how they hang like guillotine blades 
In the sun 
Like a blade
In the sun 
Like a blade
Comments