Distillers - Drain The Blood Chords & Tabs

 

Drain The Blood Chords & Tabs

Distillers Chords & Tabs

Version: 1 Type: Chords 0 ratings
1 star 2 stars 3 stars 4 stars 5 stars
comments

Drain The Blood Chords

   
-------------------------------------------------------------------------------
	                Drain the Blood-the Distillers
-------------------------------------------------------------------------------
Tabbed by: stableabel
Email: stableabel@aol.com
Tuning: standard
[ Tab from: http://www.guitartabs.cc/tabs/d/distillers/drain_the_blood_crd.html ]
  Intro repeat 3x
e|--0-0--0--0-0--0-------0--0-0----------------------------------------------|
B|--1-1--0--0-0--0--1-1--0--0-0----------------------------------------------|
G|--2-2--0--1-1--0--0-0--0--1-1----------------------------------------------|
D|--2-2-----2-2-----2-2-----2-2----------------------------------------------|
A|----------2-2-----3-3-----2-2----------------------------------------------|
E|---------------------------------------------------------------------------|
          ^ ^ ^   ^
e|--3-3-3-3-4-4-4-4----------------------------------------------------------|
B|--0-0-0-0-4-4-4-4----------------------------------------------------------|
G|--0-0-0-0-5-5-5-5----------------------------------------------------------|
D|--0-0-0-0-6-6-6-6----------------------------------------------------------|
A|--2-2-2-2-6-6-6-6----------------------------------------------------------|
E|--3-3-3-3-4-4-4-4----------------------------------------------------------|
   10x   10x     on this part listen to the song for struming
e|--0-----0------3-4---------------------------------------------------------|
B|--1-----0(1)---0-4---------------------------------------------------------|
G|--0-----2------0-5--5-4----------------------------------------------------|
D|--2-----2------0-6--5-4----------------------------------------------------|
A|--3------------2-6--3-2----------------------------------------------------|
E|---------------3-4---------------------------------------------------------|
   10x10x10x 5x 2x   1x1x  this part repeats 3 times
e|--0-----1--3--4----3-------------------------------------------------------|
B|--1--0--1--0--4----0-------------------------------------------------------|
G|--2--1--2--0--5----0-------------------------------------------------------|
D|--2--2--3--0--6----0-------------------------------------------------------|
A|-----2--3--2--6----2-------------------------------------------------------|
E|-----0--4--3--4----3-------------------------------------------------------|


| /  slide up
| \  slide down
| h  hammer-on
| p  pull-off
| ~  vibrato
| +  harmonic
| x  Mute note
===============================================================================
Comments