Distillers - City Of Angels Chords & Tabs

 

City Of Angels Chords & Tabs

Distillers Chords & Tabs

Version: 3 Type: Tab 0 ratings
1 star 2 stars 3 stars 4 stars 5 stars
comments

City Of Angels Tab

The Distillers - City Of Angels 
Sing Sing Death House

Intro 

|-----------------------------------------------------------------------|
|-----------------------------------------------------------------------| 
|------------------777777777--------------------------99999999----------| 
|-5555555555--4-5--777777777--4-5---7777777777--6--7--99999999----------| 
|-5555555555--4-5--555555555--4-5---7777777777--6--7--77777777----------| 
|-3333333333--2-3-------------2-3---5555555555--4--5--------------------|
[ Tab from: http://www.guitartabs.cc/tabs/d/distillers/city_of_angels_tab_ver_3.html ]
|--------------------------------------------------------------------|
|--------------------------------------------------------------------| 
|------------------777777777--------------------6--7--99999999-------| 
|-5555555555--4-5--777777777--4-5---7777777777--6--7--99999999-------| 
|-5555555555--4-5--555555555--4-5---7777777777--4--5--77777777-------| 
|-3333333333--2-3-------------2-3---5555555555-----------------------|

Verses

|-----------------------------|
|-----------------------------|
|-5xxxx--7-------------9xxxx--| 
|-5xxxx--5xxxx--7xxxx--7xxxx--| 
|-3xxxx--5xxxx--5xxxx--7xxxx--|
|---------------5xxxx---------| 

Interlude (use with palm muting)

|-------------------|
|-------------------|
|---5---7-------9---|
|---5---7---7---9---|
|---3---5---7---7---|
|-----------5-------|

Chorus 
(You will have to work out the strumming for this
although it is very simple)

|-------------|
|-------------|
|----7-----9--| 
|-5--7--7--9--| 
|-5--5--7--7--|
|-3-----5-----|

Outro

|-----------|
|-----------|
|----7------| 
|-5--7--7---| 
|-5--5--7---|
|-3-----5---|

 
Any comments to music.man@ntlworld.com

Thanks

-*Trystan*
Comments