Distillers - City Of Angels Chords & Tabs

 

City Of Angels Chords & Tabs

Distillers Chords & Tabs

Version: 2 Type: Tab 0 ratings
1 star 2 stars 3 stars 4 stars 5 stars
comments

City Of Angels Tab

The Distillers - City Of Angels 
Sing Sing Death House, 2002

Intro 
|-----------------------------------------------------------------------|
|-----------------------------------------------------------------------| 
|------------------777777777--------------------------99999999----------| 
|-5555555555--4-5--777777777--4-5---7777777777--6--7--99999999----------| 
|-5555555555--4-5--555555555--4-5---7777777777--6--7--77777777----------| 
|-3333333333--2-3-------------2-3---5555555555--4--5--------------------|

|--------------------------------------------------------------b7/------|
|--------------------------------------------------------------b7/------| 
|------------------777777777--------------------6--7--99999999----------| 
|-5555555555--4-5--777777777--4-5---7777777777--6--7--99999999----------| 
|-5555555555--4-5--555555555--4-5---7777777777--4--5--77777777----------| 
|-3333333333--2-3-------------2-3---5555555555--------------------------|

Verses
[ Tab from: http://www.guitartabs.cc/tabs/d/distillers/city_of_angels_tab_ver_2.html ]
|----------------------------------|
|----------------------------------|
|-12xxxx----------14xxxx-----------| 
|-12xxxx--12xxxx--14xxxx---14xxxx--| 
|-10xxxx--12xxxx--12xxxx---14xxxx--|
|---------10xxxx-----------12xxxx--| 

Interlude (mix with palm muting)

|--------------------------|
|--------------------------|
|---12----------14---------|
|---12---12-----14----14---|
|---10---12-----12----14---|
|--------10-----------12---|

Chorus

|--------------------------------------------|
|--------------------------------------------|
|-----------7xxx7xxx---------------9xxx9xxx--| 
|-5xxx5xxx--7xxx7xxx---7xxx7xxxx---9xxx9xxx--| 
|-5xxx5xxx--5xxx5xxx---7xxx7xxxx---7xxx7xxx--|
|-3xxx3xxx-------------5xxx5xxxx-------------|

After last Chorus -

|---------------------------|
|---------------------------|
|--------------12h14-12-15--|
|---------------------------|
|---------------------------|
|---------------------------|
             

comments, hate mail, death threats to -
clangerfreak@hotmail.com

~*jinxx*~
Comments