Distillers - City Of Angels Chords & Tabs

 

City Of Angels Chords & Tabs

Distillers Chords & Tabs

Version: 2 Type: Bass Tab 0 ratings
1 star 2 stars 3 stars 4 stars 5 stars
comments

City Of Angels Bass Tab

-------------------------------------------------------------------------------
			     City Of Angels - The Distillers
-------------------------------------------------------------------------------
Tabbed By : Buff

Tuning: Standard

Intro
G|---------------------------------------------------------------------------|
D|---------------------------------------------------------------------------|
A|-------------555555--------------77777777----------------------------------|
E|-333333--23---------23-555555-45-------------------------------------------|
[ Tab from: http://www.guitartabs.cc/tabs/d/distillers/city_of_angels_btab_ver_2.html ]
Verse
G|---------------------------------------------------------------------------|
D|---------------------------------------------------------------------------|
A|------------55555555--------------77777777---------------------------------|
E|-33333333-------------55555555---------------------------------------------|

Chorus
G|---------------------------------------------------------------------------|
D|--------------45754--------------------------------------------------------|
A|-----------55-------5-----------77777777-----------------------------------|
E|-33333333--------------55555555--------------------------------------------|

Outro
G|---------------------------------------------------------------------------|
D|---------------------------------------------------------------------------|
A|--------5----0-------------------------------------------------------------|
E|---3-----------------------------------------------------------------------|
Comments