Distillers - City Of Angels Chords & Tabs

 

City Of Angels Chords & Tabs

Distillers Chords & Tabs

Version: 1 Type: Bass Tab 0 ratings
1 star 2 stars 3 stars 4 stars 5 stars
comments

City Of Angels Bass Tab

Hey! Now I'm not to sure if I tabbed this one completely right. So if u have
corrections teLL mE! Oh and I didn't put how many times to repeat everything..
I'm to lazy =P . But if u know the song well enuff u should be able to figure it
out. Thanks...I'll hopefully be putting up some more distilla songs up soon.  =) 

Tunning: Standard
H: Hecter  (yes I know I can't spell)
[ Tab from: http://www.guitartabs.cc/tabs/d/distillers/city_of_angels_btab.html ]
Verse
-----------------------------------------------------------|
-----------------------------------------------------------|
-------------------------------5-5-5-5-------------7-7-7-7-|
-3--3--3-3-3--3--3-3-2H-3-3-3-------------5-5-5-5----------|

Chorus (1:11)
------------------------------------------|
------4-4-5-7-5-4-------------------------|
-5-5---------------5-4--------------------|
------------------------5-5-5-5--0-0-0-0--|

Bridge
------------------------------------------------7-7-7-7-----------9-9-9-9--|
-------------------------------------5-5-5-5-------------7-7-7-7-----------|
----------5-5-5-5-----------7-7-7-7----------------------------------------|
-3-3-3-3-----------5-5-5-5-------------------------------------------------|

That's it!! Feel free to contact me..im_such_a_kinky_babe@hotmail.com and
we can yap. =)
Comments