Distillers - Blackest Years Chords & Tabs

 

Blackest Years Chords & Tabs

Distillers Chords & Tabs

Version: 1 Type: Tab 0 ratings
1 star 2 stars 3 stars 4 stars 5 stars
comments

Blackest Years Tab

   
The Blackest Years - The Distillers (Self Titled)
Tabbed by Gabby L.A Bitch
gabbysans@yahoo.com

This is my first tab so if there are any mistakes tell me! You'll have to work out the 
yourself; this is just a skeleton of what's going on.

Tuning; EADGBE

Intro

Guitar I
               (G)      (A)       (B)
E-------------------------------------------------------------------------|
B---------8-------10------12--------10--------8---------------------------|
G-------------------------------------------------------------------------|
D-------------------------------------------------------------------------|
A-------------------------------------------------------------------------|
E-------------------------------------------------------------------------|X4

Guitar II
        (G)    (A)   (B)            (A)         (B)
E-------------------------------------------------------------------------|
B-------------------------------------------------------------------------|
G-------------------------------------------------------------------------|
D----5------7------9----------7---------5---------------------------------|
A----5------7------9----------7---------5---------------------------------|
E----3------5------7----------5---------3---------------------------------|X5

Verse

        (G)           (C)        (D)            (G)
E-------------------------------------------------------------------------|
B-------------------------------------------------------------------------|
G----------------7---------5----------------------------------------------|
D----5-----------7---------5----------5-----------------------------------|
A----5-----------5---------3----------5-----------------------------------|
E----3--------------------------------3-----------------------------------|X4

X2 more no vocals

Verse
        (G)           (C)        (D)            (G)
E-------------------------------------------------------------------------|
B-------------------------------------------------------------------------|
G----------------7---------5----------------------------------------------|
D----5-----------7---------5----------5-----------------------------------|
A----5-----------5---------3----------5-----------------------------------|
E----3--------------------------------3-----------------------------------|X4

Pre-chorus and when your all alone...

      (A)              (C)             (G)     (A)             (C)             (G)
E-------------------------------------------------------------------|
B-------------------------------------------------------------------|
G---------5-------------------5-------------------------------7-----|
D----7----5-----5-------7-----5-----------5------7------5---5-------|
A----7----3-----5-------7-----3-----------5------7------3---5-------|
E----5----------3-------5-----------------3------5------3-----------|X1

Chorus

Guitar I    I'm on the wrong side of the tracks
E---------------------------------------------------------|
B---------------------------------------------------------|
G----7---------5------------------------------------------|
D----7---------5-------5----------------------------------|
A----5---------3-------5----------------------------------|
E----------------------3----------------------------------|X4

Guitar II
[ Tab from: http://www.guitartabs.cc/tabs/d/distillers/blackest_years_tab.html ]
E--------------------------------------------------------|
B----12-----10----8---7---8h-----------------------------|
G--------------------------------------------------------|
D--------------------------------------------------------|
A--------------------------------------------------------|
E--------------------------------------------------------|X4

Goodbye...

E---------------------------------------------------------|
B---------------------------------------------------------|
G---------------------------------7-------5---------------|
D----5-----3-5----5-----3-5-------7-------5-------5-------|
A----5-----3-5----5-----3-5-------5-------3-------5-------|
E----3-----1/3----3-----1/3-------------------------3-----|X2

Verse
        (G)           (C)        (D)            (G)
E--------------------------------------------|
B--------------------------------------------|
G----------------7---------5-----------------|
D----5-----------7---------5----------5------|
A----5-----------5---------3----------5------|
E----3--------------------------------3------|X1

Bridge

I'm going home...

        (G)           (C)        (D)            (G)
E------------------------------------------------------|
B------------------------------------------------------|
G-----------------7---7------5---5---------------------|
D----5--5---------7---5------5---5------5----5---------|
A----5--5---------5---5------3---3------5----5---------|
E----3--3-------------------------------3-----3--------|X4

Pre chorus-And when you're all alone...

      (A)              (C)             (G)     (A)             (C)             (G)
E-------------------------------------------------------------------------|
B-------------------------------------------------------------------------|
G--------5------------------------5-----------------------5---------------|
D----7---5-------5-------7--------5--------5------7-------5------5--------|
A----7---3-------5-------7--------3--------5------7-------3------5--------|
E----5-----------3-------5-----------------3------5---------------3-------|X1

Chorus

Guitar I-I'm on the wrong side of the tracks
E--------------------------------------------------------|
B--------------------------------------------------------|
G----7---------5-----------------------------------------|
D----7---------5-------5---------------------------------|
A----5---------3-------5---------------------------------|
E----------------------3---------------------------------|X4

Guitar II

E-----------------------------------------|
B----12-----10----8---7---8h--------------|
G-----------------------------------------|
D-----------------------------------------|
A-----------------------------------------|
E-----------------------------------------|X4

Outro

Guitar I
E--------------------------------------------------------------|
B--------------------------------------------------------------|
G---------------------------------7-------5--------------------|
D----5-----3-5----5-----3-5-------7-------5-------5------------|
A----5-----3-5----5-----3-5-------5-------3-------5------------|
E----3-----1/3-----3----1/3-----------------------3------------|play till fade

Guitar II

E---------------------------------------------------|
B----12-----10----8---7---8h------------------------|
G---------------------------------------------------|
D---------------------------------------------------|
A---------------------------------------------------|
E---------------------------------------------------|play till fade

Have fun!

Intro
Verse
Verse
Pre-chorus
Chorus
Verse
Bridge
Pre-chorus
Chorus
Outro
Comments