Distillers - Beat Your Heart Out Chords & Tabs

 

Beat Your Heart Out Chords & Tabs

Distillers Chords & Tabs

Version: 1 Type: Tab 0 ratings
1 star 2 stars 3 stars 4 stars 5 stars
comments

Beat Your Heart Out Tab

   
The Distillers
Beat Your Heart Out
Coral Fang (2003)
Standard Tuning

e|------------------|
b|------------------|
g|------------------|
d|-8-8-8-8-8-8-8-10-|
a|-8-8-8-8-8-8-8-10-|
e|-6-6-6-6-6-6-6-8--|

e|---------------|----------------------------|
b|---------------|----------------------------| 
g|-7-------------|----------------------------|
d|-7-(8x)-5------|-2-2-2-5-5-5--8-------10-10-|
a|-5------5-(8x)-|-2-2-2-5-5-5--8-(10x)-10-10-|
e|--------3------|-0-0-0-3-3-3--6-------8--8--|

e|-----------------------------------------|
b|-----------------------------------------|
g|-7-7-7-7-7-7-7-7-------------------------|
d|-7-7-7-7-7-7-7-7-5-5-5-5-5-5-4-4-4-4-4-4-|
a|-5-5-5-5-5-5-5-5-5-5-5-5-5-5-4-4-4-4-4-4-|
e|-----------------3-3-3-3-3-3-2-2-2-2-2-2-|

e|-----------------------------------------|
b|-----------------------------------------|
g|-7-7-7-7-7-7-7-7-------------------------|
d|-7-7-7-7-7-7-7-7-4-4-4-4-4-4-5-5-5-5-5-5-|
a|-5-5-5-5-5-5-5-5-4-4-4-4-4-4-5-5-5-5-5-5-|
e|-----------------2-2-2-2-2-2-3-3-3-3-3-3-|

e|-----------------------------------------|
b|-----------------------------------------|
g|-7-7-7-7-7-7-7-7-------------------------|
d|-7-7-7-7-7-7-7-7-5-5-5-5-5-5-4-4-4-4-4-4-|
a|-5-5-5-5-5-5-5-5-5-5-5-5-5-5-4-4-4-4-4-4-|
e|-----------------3-3-3-3-3-3-2-2-2-2-2-2-|

e|-----------------------------------------|
b|-----------------------------------------|
g|-7-7-7-7-7-7-7-7-------------------------|
d|-7-7-7-7-7-7-7-7-4-4-4-4-4-4-5-5-5-5-5-5-|
a|-5-5-5-5-5-5-5-5-4-4-4-4-4-4-5-5-5-5-5-5-|
e|-----------------2-2-2-2-2-2-3-3-3-3-3-3-|

e|------------------|
b|------------------|
g|------------------|
d|-8-8-8-8-8-8-8-10-|
a|-8-8-8-8-8-8-8-10-|
e|-6-6-6-6-6-6-6-8--|

e|---------------|---------------------------------------|
b|---------------|---------------------------------------| 
g|-7-------------|---------------------------------------|
d|-7-(8x)-5------|-2-2-2-5-5-5--2-2-2-5-5-5--2-2-2-5-5-5-|
a|-5------5-(8x)-|-2-2-2-5-5-5--2-2-2-5-5-5--2-2-2-5-5-5-|
e|--------3------|-0-0-0-3-3-3--0-0-0-3-3-3--0-0-0-3-3-3-|

e|-----------------------------------------|
b|-----------------------------------------|
g|-7-7-7-7-7-7-7-7-------------------------|
d|-7-7-7-7-7-7-7-7-4-4-4-4-4-4-5-5-5-5-5-5-|
a|-5-5-5-5-5-5-5-5-4-4-4-4-4-4-5-5-5-5-5-5-|
e|-----------------2-2-2-2-2-2-3-3-3-3-3-3-|
[ Tab from: http://www.guitartabs.cc/tabs/d/distillers/beat_your_heart_out_tab.html ]
e|-----------------------------------------|
b|-----------------------------------------|
g|-7-7-7-7-7-7-7-7-------------------------|
d|-7-7-7-7-7-7-7-7-5-5-5-5-5-5-4-4-4-4-4-4-|
a|-5-5-5-5-5-5-5-5-5-5-5-5-5-5-4-4-4-4-4-4-|
e|-----------------3-3-3-3-3-3-2-2-2-2-2-2-|

e|-----------------------------------------|
b|-----------------------------------------|
g|-7-7-7-7-7-7-7-7-------------------------|
d|-7-7-7-7-7-7-7-7-4-4-4-4-4-4-5-5-5-5-5-5-|
a|-5-5-5-5-5-5-5-5-4-4-4-4-4-4-5-5-5-5-5-5-|
e|-----------------2-2-2-2-2-2-3-3-3-3-3-3-|

e|-----------------------------------------|
b|-----------------------------------------|
g|-7-7-7-7-7-7-7-7-------------------------|
d|-7-7-7-7-7-7-7-7-5-5-5-5-5-5-4-4-4-4-4-4-|
a|-5-5-5-5-5-5-5-5-5-5-5-5-5-5-4-4-4-4-4-4-|
e|-----------------3-3-3-3-3-3-2-2-2-2-2-2-|

e|---------------|-----------------------------------------|
b|---------------|-----------------------------------------| 
g|-7-------------|-----------------------------------------|
d|-7-(8x)-5------|-2-2-2-5-5-5--2-2-2-5-5-5--8-------10-10-|
a|-5------5-(8x)-|-2-2-2-5-5-5--2-2-2-5-5-5--8-(10x)-10-10-|
e|--------3------|-0-0-0-3-3-3--0-0-0-3-3-3--6-------8--8--|

e|-----------------------|
b|-----------------------|
g|-7---------------------|
d|-7-(16x)-5------4------|
a|-5-------5-(8x)-4-(8x)-|
e|---------3------2------|
  all palm muted

e|-----------------------------------------|
b|-----------------------------------------|
g|-7-7-7-7-7-7-7-7-------------7-7-7-7-7-7-|
d|-7-7-7-7-7-7-7-7-4-4-4-4-4-4-7-7-7-7-7-7-|
a|-5-5-5-5-5-5-5-5-4-4-4-4-4-4-5-5-5-5-5-5-|
e|-----------------2-2-2-2-2-2-------------|

e|-------------------------------------|
b|-------------------------------------|
g|-7-------------7-------------10------|
d|-7-(8x)-5------7-(8x)-5------10-(8x)-|
a|-5------5-(8x)-5------5-(8x)-8-------|
e|--------3-------------3--------------|

e|-----------------------------------------|
b|-----------------------------------------|
g|-7-7-7-7-7-7-7-7-------------------------|
d|-7-7-7-7-7-7-7-7-5-5-5-5-5-5-4-4-4-4-4-4-|
a|-5-5-5-5-5-5-5-5-5-5-5-5-5-5-4-4-4-4-4-4-|
e|-----------------3-3-3-3-3-3-2-2-2-2-2-2-|

e|-----------------------------------------|
b|-----------------------------------------|
g|-7-7-7-7-7-7-7-7-------------------------|
d|-7-7-7-7-7-7-7-7-5-5-5-5-5-5-4-4-4-4-4-4-|
a|-5-5-5-5-5-5-5-5-5-5-5-5-5-5-4-4-4-4-4-4-|
e|-----------------3-3-3-3-3-3-2-2-2-2-2-2-|

e|--------------------------------------|
b|--------------------------------------|
g|-7-------------10-------------10------|
d|-7-(8x)-5------10-(8x)-5------10-(8x)-|
a|-5------5-(8x)-8-------5-(8x)-8-------|
e|--------3--------------3--------------|

e|---|
b|---|
g|-7-|
d|-7-|
a|-5-|
e|---|
Comments