Distillers - Beat Your Heart Out Chords & Tabs

 

Beat Your Heart Out Chords & Tabs

Distillers Chords & Tabs

Version: 2 Type: Bass Tab 0 ratings
1 star 2 stars 3 stars 4 stars 5 stars
comments

Beat Your Heart Out Bass Tab

   
Distillers
'Beat Your Heart Out'

The intro of the song has three parts, 
parts II & III are recycled throughout the song.

Part I
Intro        
G|----------------|  
D|----------------|  
A|----------------|x2  
E|-6-6-6-6-6-6-6/8|

Part II/Chorus
'Baby... you make my heart beat faster'           
G|---------------------------------------| 
D|---------------------------------------|  
A|5-5-5-5-5-5-5-5------------------------|x2
E|----------------3-3-3-3-3-3-2-2-2-2-2-2|  

Part III/Post Chorus
'I know....' 
G|-----------|                           |---------------|
D| ----------|                           |---------------|
A|-----------| and end it with the intro |---------------|
E|0-0-0-3-3-3|                           |6-6-6-6-6-6-6/8|


There's four parts for the verse, but for the first set of verse, only 2 is being used.
And unlike the other bass tabs that you'll find, this part is played with higher octave. 

Verse 1
G|-------------------------------------------|
D|----------------7--------------------------|
A|5-5-5-5-5-5-5-5---10-10-10-10-10-10-9-9-9-9|
E|-------------------------------------------|

Verse 2
G|--------------------------------------------|
D|----------------7---------------------------|
A|5-5-5-5-5-5-5-5---9-9-9-9-9-9-10-10-10-10-10|
E|--------------------------------------------|

For the first set of verse play in this order; 
Verse 1,
Verse 2,
Verse 1,
Verse 2,

Intro        
G|----------------|  
D|----------------|  
A|----------------|  
E|-6-6-6-6-6-6-6/8|

Chorus				        Post Chorus
G|---------------------------------|    G|------------|
D|---------------------------------|    D|------------|
A|5-5-5-5-5-5-5-5------------------|x2  A|------------|x3
E|----------------3-3-3-3-3-3-3-3-3|    E|0-0-0-3-3-3-| 


The 2nd set of verse have some variation of the first set.
And this set contains all 4 parts of the verse

Verse 3
G|---------------------------------------|
D|---------------------------------------|
A|5-5-5-5-5-5-5-5------------------------|
E|----------------2-2-2-2-2-2-3-3-3-3-3-3|

Verse 4
G|---------------------------------------|
D|---------------------------------------|
A|5-5-5-5-5-5-5-5------------------------|
E|----------------3-3-3-3-3-3-2-2-2-2-2-2|

For the first set of verse play in this order; 
Verse 3,
Verse 4,
Verse 1,
Verse 2,
[ Tab from: http://www.guitartabs.cc/tabs/d/distillers/beat_your_heart_out_btab_ver_2.html ]
Chorus				        Post Chorus
G|---------------------------------|    G|------------|
D|---------------------------------|    D|------------|
A|5-5-5-5-5-5-5-5------------------|x2  A|------------|x2
E|----------------3-3-3-3-3-3-3-3-3|    E|0-0-0-3-3-3-| 

Intro        
G|----------------|  
D|----------------|  
A|----------------|  
E|-6-6-6-6-6-6-6/8|


This part is palm muted, and i might be wrong, but i cant hear the bass playing for this part
but i tabbed it out for the benefit of those who still want to play the bridge, 

Bridge (Palm Muted Chorus)
'Let alone to rest alone...'
G|---------------------------------------| 
D|---------------------------------------|  
A|5X5X5X5X5X5X5X5------------------------|x3
E|----------------3X3X3X3X3X3X2X2X2X2X2X2|  


Bass comes in the Post Bridge

Post Bridge
'Oh oh oh oh oh.....'
G|--------------------------------------------------------|
D|--------------------------------------------------------|
A|--------------------------------------------------------|
E|-3-3-3-3-3-3-3-3--7-7-7-7--2-2-2-2---3-3-3-3-3-3-3-2----|


Jump into chorus

Chorus
G|---------------------------------|
D|---------------------------------|
A|5-5-5-5-5-5-5-5------------------|x2
E|----------------3-3-3-3-3-3-3-3-3|

and a bar of alternate Chorus

Alternate Chorus
she screams, 'Baby!...' a lil higher
G|---------------------------------|
D|---------------------------------|
A|---------------------------------|
E|6-6-6-6-6-6-6/8--3-3-3-3-3-3-3-3-|


Then play two bars of Verse 1, the part where the backing vox are saying
'There's nothing left so take the rest...' and the guitars are muted.

Verse 1
'There's nothing left so take the rest...'
G|-------------------------------------------|
D|----------------7--------------------------|
A|5-5-5-5-5-5-5-5---10-10-10-10-10-10-9-9-9-9|x2
E|-------------------------------------------|


Chorus
G|---------------------------------|
D|---------------------------------|
A|5-5-5-5-5-5-5-5------------------|
E|----------------3-3-3-3-3-3-3-3-3|


Alternate Chorus
she screams, 'Baby!...' a lil higher
G|---------------------------------|
D|---------------------------------|
A|---------------------------------|x2
E|6-6-6-6-6-6-6/8--3-3-3-3-3-3-3-3-|


then

Outro
'Let alone...'
G|----|
D|----|
A|5~~~|ring out 
E|----|

Its a lil complicated at first but give yourself sometime to read thru while listening to ths song.

Submitted By Bob 'Extremers' Sebastian
Please Rate! Many thanks
Comments