Distillers - Ask The Angels Chords & Tabs

 

Ask The Angels Chords & Tabs

Distillers Chords & Tabs

Version: 1 Type: Tab 0 ratings
1 star 2 stars 3 stars 4 stars 5 stars
comments

Ask The Angels Tab

Band - The Distillers
Album - The Distillers
Song - Ask the Angels

This is the best song from the album. It might not be 100% correct but its better than nothing.


Intro/ Verse
E-------------------------------------------9----9------------5----5-----5-|
B-10---10----------------------------------10---10------------7----7-----7-|
G-11---11--x--11----------7---7--x--7------11---11--x--11-----7----7--x--7-|
D-11---11--x--11----------7---7--x--7------11---11--x--11-----7----7--x--7-|
A-9-----9--x---9----------5---5--x--5-------9----9--x---9-----5----5--x--5-|
E--------------------------------------------------------------------------|

Chorus
E---------------------------------------------------------|
B--------------------------------------------8-7-8-7-7----|
G-------------------------------7-----7-------------------|
D-7-----7-----7-----7-----7-----7-----7-------------------|
A-7-----7-----7-----7-----7-----5-----5-------------------|
E-5-----5-----5-----5-----5-------------------------------|


\"It\'s  Wild, Wild\"
E------------------------------------------|--------------------------------|
B------------------------------------------|--------------------------------|
G------------------------------------------|---9-------9-------9-------9----|
D------------------------------------------|---9-------9-------9-------9----|
A-*6-------*6-------*6--------*6-----------|---7-------7-------7-------7----|
E-*3-------*3-------*3--------*3-----------|--------------------------------|

[ Tab from: http://www.guitartabs.cc/tabs/d/distillers/ask_the_angels_tab.html ]
solo 1:
e--------------------18b20r18r-----18b-----18----18-------------------18------|
B---18----20----21------------21--------------------21----18----21--------21--|
G-----------------------------------------------------------------------------|
D-----------------------------------------------------------------------------|
A-----------------------------------------------------------------------------|
E-----------------------------------------------------------------------------|

e-2018-----------------------------------------------------------------11b13-|
B------21-18------------------------------------------------------11b13------|
G---------------*7-------------*7----------------10b12-11b13-13b15-----------|
D-------------7---9b-9b-9-9-7-9b-*9-11b13-13b15------------------------------|
A----------9-----------------------------------------------------------------|
E----------------------------------------------------------------------------|

solo 2:
e-11b13=11=11=11=11=11r------------------------------------------------------|
B--------------------------11brbr--11/9--------------------------------------|
G----------------------13----------------10-10------------13--10--13--10--13-|
D-----------------------------------------------13-15-15---------------------|
A----------------------------------------------------------------------------|
E----------------------------------------------------------------------------|

e----------------------------------------------------11b13=11=11=11r--13b15-|
B-11------------------------------------------------------------------------|
G-----10--------------10-13-10-13-10-13-13-10-13-10-------------------------|
D---------14--13--14--------------------------------------------------------|
A---------------------------------------------------------------------------|
E---------------------------------------------------------------------------|

key change:
e--------------------|-------|
B--------------------|-------|
G-------6---13----6--|----8--|
D---6---6---13----6--|----8--|
A---6---4---11----4--|----6--|
E---4----------------|-------|

ps PUNKS NOT DEAD!!              Anna
Comments