Dissociatives - Somewhere Down The Barrel Chords & Tabs

 

Somewhere Down The Barrel Chords & Tabs

Dissociatives Chords & Tabs

Version: 1 Type: Tab 0 ratings
1 star 2 stars 3 stars 4 stars 5 stars
comments

Somewhere Down The Barrel Tab

   
Artist: The Dissociatives 
Album: The Dissociatives
Song: Somewhere Down The Barrel 
Transcribed by Paul @ OzTabs (oztabs@bigpond.com) www.ozmusic-central.com.au/oztabs 

INTRO: 
Keyboard riff for guitar: 
D# G 
E-|---------------------------------------------------------------|- 
B-|-----------------------------------then-12-10--8-6--5-3--1-0---|- 
G-|-0--3--1~~----0-1-3/6-3-0-1~~--etc-----------------------------|- 
D-|---------------------------------------------------------------|- 
A-|---------------------------------------------------------------|- 
E-|---------------------------------------------------------------|- 
[ Tab from: http://www.guitartabs.cc/tabs/d/dissociatives/somewhere_down_the_barrel_tab.html ]
1ST VERSE CHORDS: 
C Am G# D# A#m G# F C Am G# D# A#m G# B 
E-|-----------------------------|----------------------------|- 
B-|-5---5---4---8---6---4---10--|-5---5---4---8---6---4---4--|- 
G-|-5---5---5---8---6---5---10--|-5---5---5---8---6---5---4--|- 
D-|-5---7---6---8---8---6---10--|-5---7---6---8---8---6---4--|- 
A-|-3---7---6---6---8---6---8---|-3---7---6---6---8---6---2--|- 
E-|-----5---4-------6---4-------|-----5---4-------6---4------|- 

CHORUS CHORDS: 
D# G Cm F G# G D# G Cm F C# G# G 
E-|---------3---------------|---------3-----------------|- 
B-|-8---3---4---10--4---3---|-8---3---4---10--6---4---3-|- 
G-|-8---4---5---10--5---4---|-8---4---5---10--6---5---4-|- 
D-|-8---5---5---10--6---5---|-8---5---5---10--6---6---5-|- then intro 
A-|-6---5---3---8---6---5---|-6---5---3---8---4---6---5-|- 
E-|-----3-----------4---3---|-----3---------------4---3-|- 

OUTRO: 
D#5 C#5 A#5 B5 
E-|-----------------------|- 
B-|-----------------------|- 
G-|-8---6-----------------|- 
D-|-8---6---8---------9---|- 
A-|-6---4---8---------9---|- 
E-|---------6---3-4-5-7---|-
Comments