Dissociatives - Horror With Eyeballs Chords & Tabs

 

Horror With Eyeballs Chords & Tabs

Dissociatives Chords & Tabs

Version: 2 Type: Tab 0 ratings
1 star 2 stars 3 stars 4 stars 5 stars
comments

Horror With Eyeballs Tab

   
"Horror With Eyeballs" by Marco A. Pedroso Junior

Artist: The Dissociatives
Album: The Dissociatives
Song: Horror With Eyeballs

Standard tuning (E, A, D, G, B, E)

Intro 
|---| (x4)
|-6-|
|-6-|
|-x-|
|-5-|
|---|

Verse
|-0---0---0---0---1-| (x2)
|-1---1---1---1---1-|
|-2---2---2---2---2-|
|-2---1---2---0---3-|
|-0---0---0---0---3-|
|-----------------1-|

Pre-Chorus
|-0---0---0---0---1-| (x1)
|-1---1---1---1---1-|
|-0---0---2---2---2-|
|-2---0---2---0---3-|
|-3---2---0---0---3-|
|-------------2---1-|

[ Tab from: http://www.guitartabs.cc/tabs/d/dissociatives/horror_with_eyeballs_tab_ver_2.html ]
Chorus
|-0---0---4---1-| (x2)
|-1---1---4---1-|
|-0---0---5---2-|
|-2---2---6---3-|
|-3---3---6---3-|
|---------4---1-|


Bridge
|----------| (x2)   |-----------------------| (x2)   |--------------3-| (x1)
|----------|	  |-----------------------|        |--------------3-|
|-5--6--10-|        |-5--6---10---4---0---3-|        |-5--6--10--4--4-|
|-5--6--10-|        |-5---6--10---4---2---3-|        |-5--6--10--4--5-|
|-3--4--8--|        |-3--4---8----2---2---1-|        |-3--4--8---2--5-|
|----------|        |-----------------0-----|        |--------------3-|


Outro
|-----------------------| (x2)
|-----------------------|
|-----------------------|
|-2---5---7---2---7---3-|
|-2---3---5---2---5---3-|
|-0-----------0-------1-|
Comments