Dissociatives - Horror With Eyeballs Chords & Tabs

 

Horror With Eyeballs Chords & Tabs

Dissociatives Chords & Tabs

Version: 1 Type: Tab 0 ratings
1 star 2 stars 3 stars 4 stars 5 stars
comments

Horror With Eyeballs Tab

   
Artist: The Dissociatives
Album: The Dissociatives
Song: Horror With Eyeballs

standard tuning (E, A, D, G, B, E)

Chorus
C All of this time on my hands, so far has G# gone to feeding my F animals
C#

Verse
-0---0---0---0---1---------|
-1---1---1---1---1---------|
-2---2---2---2---2---------|
-2---1---2---0---3---------|
-0---0---0---0---3---------|
-----------------1---------|
[ Tab from: http://www.guitartabs.cc/tabs/d/dissociatives/horror_with_eyeballs_tab.html ]
PreChorus
-0---0---0---0---1----------|
-1---1---1---1---1----------|
-0---0---2---2---2----------|
-2---0---2---0---3----------|
-3---2---0---0---3----------|
-------------2---1----------|

Bridge
C C# F(x2)
C C# F B Em A#m(x2)
C C# F B G

Outro
The chords are really just Em and C, but I've arranged a guitar bit that incorperates 
of the synth

---------------15-14-12------0----0-----|
-----------------------------1----1-----|
-------12-11-9-12-11-9-------2p0--0-----|
-8-7-8-----------------7-5-8-0----2-----|
-7-7-7-10--9-7-10--9-7-7-7-7-3----3-----|
-0-0-0--0--0-0--0--0-0-0-0-0------------|
Comments