Dispatched - Final Countdown Chords & Tabs

 

Final Countdown Chords & Tabs

Dispatched Chords & Tabs

Version: 2 Type: Tab 0 ratings
1 star 2 stars 3 stars 4 stars 5 stars
comments

Final Countdown Tab

   
Gtr I (D G C F A D) - 'Lead'
Gtr II (D G C F A D) - 'Rhythm'

Contrary to popular belief this song isn't by Children of Bodom. It's actually by Dispatched.
Just thought I'd clear that up.

 Main Riff
  Q=155
  Bb5
 4/4
  Gtr I
  W          +W           Q.        S S  Q     Q
|----------|------------|----------------------------|
|----------|------------|----------------------------|
|-3--------|-(3)--------|----------10-8-10-----------|
|-3--------|-(3)--------|-8--------------------8-----|
|-1--------|-(1)--------|----------------------------|
|----------|------------|----------------------------|
|
| Gtr II
|                         PM--------------------------
| W          +W           E  S S E  S S  E S S E S S
|----------|------------|----------------------------|
|----------|------------|----------------------------|
|-3--------|-(3)--------|-3--3-3-3--3-3--3-3-3-3-3-3-|
|-3--------|-(3)--------|-3--3-3-3--3-3--3-3-3-3-3-3-|
|-1--------|-(1)--------|-1--1-1-1--1-1--1-1-1-1-1-1-|
|----------|------------|----------------------------|


  Gb5                             Eb5
  +Q.        S  S  E  E   Q       +Q.        S  S  Q     Q
|-------------------------------|---------------------------------|
|-------------------------------|---------------------------------|
|-----------11-10-11-10---8-----|-(8)-------11-10-11--------------|
|-(8)---------------------------|------------------------8--------|
|-------------------------------|---------------------------------|
|-------------------------------|---------------------------------|
|
|------------------------------------------------------------|
|  E  S S E  S  S  E  S S E S S    E  S S E  S  S  E S S E S S
|-------------------------------|---------------------------------|
|-------------------------------|---------------------------------|
|-------------------------------|--8--8-8-8--8--8--8-8-8-8-8-8----|
|--4--4-4-4--4--4--4--4-4-4-4-4-|--8--8-8-8--8--8--8-8-8-8-8-8----|
|--4--4-4-4--4--4--4--4-4-4-4-4-|--6--6-6-6--6--6--6-6-6-6-6-6----|
|--2--2-2-2--2--2--2--2-2-2-2-2-|---------------------------------|


  Ab                         Bb5
  Q.       S S E E   E E     Q.        S S  Q     Q
|--------------------------|----------------------------|
|--------------------------|----------------------------|
|----------8-6-8-6---5-8---|-6--------10-8-10-----------|
|-6------------------------|----------------------8-----|
|--------------------------|----------------------------|
|--------------------------|----------------------------|
|
| PM-----------------------------------------------------
| E  S S E S S E S S E S S   E  S S E  S S  E S S E S S
|--------------------------|----------------------------|
|--------------------------|----------------------------|
|--------------------------|-3--3-3-3--3-3--3-3-3-3-3-3-|
|-6--6-6-6-6-6-6-6-6-6-6-6-|-3--3-3-3--3-3--3-3-3-3-3-3-|
|-6--6-6-6-6-6-6-6-6-6-6-6-|-1--1-1-1--1-1--1-1-1-1-1-1-|
|-4--4-4-4-4-4-4-4-4-4-4-4-|----------------------------|


  Gb5
  +Q.        S  S  E  E   Q
|---------------------------------|
|---------------------------------|
|-----------11-10-11-10---8-------|
|-(8)-----------------------------|
|---------------------------------|
|---------------------------------|
|
|-----------------------------|
|  E  S S E  S  S  E  S S E S S
|---------------------------------|
|---------------------------------|
|---------------------------------|
|--4--4-4-4--4--4--4--4-4-4-4-4---|
|--4--4-4-4--4--4--4--4-4-4-4-4---|
|--2--2-2-2--2--2--2--2-2-2-2-2---|


  Eb5                            Ab5
  +Q.        S  S  Q     Q       Q.       S S E E   E E
|------------------------------|--------------------------|
|------------------------------|--------------------------|
|-(8)-------11-10-11-----------|----------8-6-8-6---5-8---|
|------------------------8-----|-6------------------------|
|------------------------------|--------------------------|
|------------------------------|--------------------------|
|
|  PM---------------------------------------------------|
|  E  S S E  S  S  E S S E S S   E  S S E S S E S S E S S
|------------------------------|--------------------------|
|------------------------------|--------------------------|
|--8--8-8-8--8--8--8-8-8-8-8-8-|--------------------------|
|--8--8-8-8--8--8--8-8-8-8-8-8-|-6--6-6-6-6-6-6-6-6-6-6-6-|
|--6--6-6-6--6--6--6-6-6-6-6-6-|-6--6-6-6-6-6-6-6-6-6-6-6-|
|------------------------------|-4--4-4-4-4-4-4-4-4-4-4-4-|


  Bb5      C5         Db5       Gb5
  Q.   S S Q.   S S    E E E  E Q   Q
|-------------------|------------------|
|-------------------|------------------|
|-6----5-6-8----6-8-|-10-8-6-------11--|
|-------------------|--------10-8------|
|-------------------|------------------|
|-------------------|------------------|
|
| H        H           H        Q   Q
|-------------------|------------------|
|-------------------|-----------7---7--|
|-3--------5--------|--6--------6---6--|
|-3--------5--------|--6--------4---4--|
|-1--------3--------|--4---------------|
|-------------------|------------------|


  F5                                    Bb5
   H.       S  S  S S    H.      E  E   W
|---------------------|---------------|-------------------------|
|---------------------|---------------|-------------------------|
|-10-------10-11-10-8-|-10-------8-10-|-------------------------|
|---------------------|---------------|-8-----------------------|
|---------------------|---------------|-------------------------|
|---------------------|---------------|-------------------------|
|
|                                       PM--------------------|
|  W                     W              E S S E S S E S S E S S
|---------------------|---------------|-------------------------|
|--6------------------|--6------------|-------------------------|
|--5------------------|--5------------|-3-3-3-3-3-3-3-3-3-3-3-3-|
|--3------------------|--3------------|-3-3-3-3-3-3-3-3-3-3-3-3-|
|---------------------|---------------|-1-1-1-1-1-1-1-1-1-1-1-1-|
|---------------------|---------------|-------------------------|


  Bb5
  +H            Q      Q
|----------------------------|
|----------------------------|
|----------------------------|
|-(8)-----------8------------|
|---------------------11-----|
|----------------------------|
|
|  PM-------------------------
|  E  S S E S S E S S  E S S
|----------------------------|
|----------------------------|
|--3--3-3-3-3-3-3-3-3--3-3-3-|
|--3--3-3-3-3-3-3-3-3--3-3-3-|
|--1--1-1-1-1-1-1-1-1--1-1-1-|
|----------------------------|


  Q      Q      Q      Q       W
|----------------------------|---------------------------||
|----------------------------|---------------------------||
|----------------------------|---------------------------||
|-------11-----10------------|-8-------------------------||
|-8-------------------11-----|---------------------------||
|----------------------------|---------------------------||
|
|----------------------------------------------------|
| E S S  E S S  E S S  E S S   E S S E S S E S S E S S
|----------------------------|---------------------------||
|----------------------------|---------------------------||
|-3-3-3--3-3-3--3-3-3--3-3-3-|-3-3-3-3-3-3-3-3-3-3-3-3---||
|-3-3-3--3-3-3--3-3-3--3-3-3-|-3-3-3-3-3-3-3-3-3-3-3-3---||
|-1-1-1--1-1-1--1-1-1--1-1-1-|-1-1-1-1-1-1-1-1-1-1-1-1---||
|----------------------------|---------------------------||


 Verse
  Bb5
               |-----3-----|
  Q.       E   Q    Q      Q
|--------------------------------|
|--------------------------------|
|--------------------------------|
|-8--------8---8---10-----11-----|
|--------------------------------|
|--------------------------------|
|
| PM------------------------------
| E  S S E S S E S    S E    S S
|--------------------------------|
|--------------------------------|
|-3--3-3-3-3-3-3-3----3-3----3-3-|
|-3--3-3-3-3-3-3-3----3-3----3-3-|
|-1--1-1-1-1-1-1-1----1-1----1-1-|
|--------------------------------|


   Q     H.                   Q.       E   Q      E  E
|---------------------------|----------------------------|
|---------------------------|----------------------------|
|---------------------------|----------------------------|
|-10-----8------------------|-8--------8---8-----10-11---|
|---------------------------|----------------------------|
|---------------------------|----------------------------|
|
|------------------------------------------------------|
|  E S S E  S S E S S E S S   E  S S E S S E S S  E  S S
|---------------------------|----------------------------|
|---------------------------|----------------------------|
|--3-3-3-3--3-3-3-3-3-3-3-3-|-3--3-3-3-3-3-3-3-3--3--3-3-|
|--3-3-3-3--3-3-3-3-3-3-3-3-|-3--3-3-3-3-3-3-3-3--3--3-3-|
|--1-1-1-1--1-1-1-1-1-1-1-1-|-1--1-1-1-1-1-1-1-1--1--1-1-|
|---------------------------|----------------------------|


  Gb5
   +Q      H.
|-----------------------------|
|-----------------------------|
|-----------------------------|
|-(11)-----8------------------|
|-----------------------------|
|-----------------------------|
|
|   PM-------------------------
|   E  S S E  S S E S S E S S
|-----------------------------|
|-----------------------------|
|-----------------------------|
|---4--4-4-4--4-4-4-4-4-4-4-4-|
|---4--4-4-4--4-4-4-4-4-4-4-4-|
|---2--2-2-2--2-2-2-2-2-2-2-2-|


  Bb5
               |-----3-----|
  Q.       E   Q    Q      Q        Q     H.
|--------------------------------|---------------------------|
|--------------------------------|---------------------------|
|--------------------------------|---------------------------|
|-8--------8---8---10-----11-----|-10-----8------------------|
|--------------------------------|---------------------------|
|--------------------------------|---------------------------|
|
|----------------------------------------------------------|
| E  S S E S S E S    S E    S S    E S S E  S S E S S E S S
|--------------------------------|---------------------------|
|--------------------------------|---------------------------|
|-3--3-3-3-3-3-3-3----3-3----3-3-|--3-3-3-3--3-3-3-3-3-3-3-3-|
|-3--3-3-3-3-3-3-3----3-3----3-3-|--3-3-3-3--3-3-3-3-3-3-3-3-|
|-1--1-1-1-1-1-1-1----1-1----1-1-|--1-1-1-1--1-1-1-1-1-1-1-1-|
|--------------------------------|---------------------------|


  Bb5            C5
  Q     +E   E    E.   E.    E
|--------------------------------|
|--------------------------------|
|--------------------------------|
|-8-----(8)-11---10----8---------|
|---------------------------11---|
|--------------------------------|
|
| PM------------------------------
| E S S  E   S S  E  S S  E  S S
|--------------------------------|
|--------------------------------|
|-3-3-3--3---3-3--5--5-5--5--5-5-|
|-3-3-3--3---3-3--5--3-5--5--5-5-|
|-1-1-1--1---1-1--3--3-3--3--3-3-|
|--------------------------------|


  Db5                        Gb5
                                          |-----3-----|
   W                         Q.       E   Q    Q      Q
|--------------------------|--------------------------------|
|--------------------------|--------------------------------|
|--------------------------|--------------------------------|
|--------------------------|-8--------8---8---10-----11-----|
|-11-----------------------|--------------------------------|
|--------------------------|--------------------------------|
|
|---------------------------------------------------------|
|  E S S E S S E S S E S S   E  S S E S S E S    S E    S S
|--------------------------|--------------------------------|
|--------------------------|-7--7-7-7-7-7-7-7----7-7----7-7-|
|--6-6-6-6-6-6-6-6-6-6-6-6-|-6--6-6-6-6-6-6-6----6-6----6-6-|
|--6-6-6-6-6-6-6-6-6-6-6-6-|-4--4-4-4-4-4-4-4----4-4----4-4-|
|--4-4-4-4-4-4-4-4-4-4-4-4-|--------------------------------|
|--------------------------|--------------------------------|


  Ab5
   |----3-----|
   Q   Q      Q      H
|--------------------------------|
|--------------------------------|
|--------------------------------|
|-10---8-------------------------|
|------------11-----11-----------|
|--------------------------------|
|
|  PM-----------------------------
|  E S   S E    S S  E S S E S S
|--------------------------------|
|--9-9---9-9----9-9--9-9-9-9-9-9-|
|--8-8---8-8----8-8--8-8-8-8-8-8-|
|--6-6---6-6----6-6--6-6-6-6-6-6-|
|--------------------------------|
|--------------------------------|


  Db5            C5              Bb5          Ab5
   Q.        E    Q     E  E     E  E   Q      Q     Q
|------------------------------|---------------------------|
|------------------------------|---------------------------|
|-----------------------8-10---|-8-------------------8-----|
|-11--------11---11------------|---11---8-----11-----------|
|------------------------------|---------------------------|
|------------------------------|---------------------------|
|
|--------------------------------------------------------|
|  E  S S E  S S  E S S E  S S   E  S S E S S  E S S E S S
|------------------------------|---------------------------|
|------------------------------|---------------------------|
|--6--6-6-6--6-6--5-5-5-5--5-5-|-3--3-3-3-3-3--------------|
|--6--6-6-6--6-6--5-5-5-5--5-5-|-3--3-3-3-3-3--6-6-6-6-6-6-|
|--4--4-4-4--4-4--3-3-3-3--3-3-|-1--1-1-1-1-1--6-6-6-6-6-6-|
|------------------------------|---------------4-4-4-4-4-4-|


  Gb5
                 |-----3-----|
   E.    S Q     Q    Q      Q
|----------------------------------|
|----------------------------------|
|----------------------------------|
|-11----10-8-----8---10-----11-----|
|----------------------------------|
|----------------------------------|
|
|  PM-------------------------------
|  E  S  S E S S E S    S E    S S
|----------------------------------|
|----------------------------------|
|----------------------------------|
|--4--4--4-4-4-4-4-4----4-4----4-4-|
|--4--4--4-4-4-4-4-4----4-4----4-4-|
|--2--2--2-2-2-2-2-2----2-2----2-2-|


  Ab5                                 Ab5
                                    ~~
   |----3-----|
   Q   Q      Q      Q     Q        W
|--------------------------------|------------------|
|--------------------------------|------------------|
|--------------------------------|------------------|
|-10---8-------------------8-----|-10---------------|
|------------11-----11-----------|------------------|
|--------------------------------|------------------|
|
|------------------------------|      PM--------|
|  E S   S E    S S  E S S E S S    E e q  e q  E
|--------------------------------|------------------|
|--------------------------------|----9-9--9-9--9---|
|--------------------------------|----8-8--8-8--8---|
|--6-6---6-6----6-6--6-6-6-6-6-6-|----6-6--6-6--6---|
|--6-6---6-6----6-6--6-6-6-6-6-6-|------------------|
|--4-4---4-4----4-4--4-4-4-4-4-4-|------------------|


                       Main Riff
                        Bb5
   +Q   E E   Q   Q      Q     E  S S  Q     Q
|--------------------||----------------------------|
|--------------------||----------------------------|
|--------------------||----------10-8-10-----------|
|-(10)--8-8-/11--10--||-10-----8-------------8-----|
|--------------------||----------------------------|
|--------------------||----------------------------|
|
|                        PM-------------------------
|  +W                    E S S E  S S  E S S E S S
|--------------------||----------------------------|
|--(9)---------------||----------------------------|
|--(8)---------------||--3-3-3-3--3-3--3-3-3-3-3-3-|
|--(6)---------------||--3-3-3-3--3-3--3-3-3-3-3-3-|
|--------------------||--1-1-1-1--1-1--1-1-1-1-1-1-|
|--------------------||----------------------------|


  Gb5                             Eb5
  +Q.        S  S  E  E   Q       +Q.        S  S  Q     Q
|-------------------------------|-------------------------------|
|-------------------------------|-------------------------------|
|-----------11-10-11-10---8-----|-(8)-------11-10-11------------|
|-(8)---------------------------|------------------------8------|
|-------------------------------|-------------------------------|
|-------------------------------|-------------------------------|
|
|------------------------------------------------------------|
|  E  S S E  S  S  E  S S E S S    E  S S E  S  S  E S S E S S
|-------------------------------|-------------------------------|
|-------------------------------|-------------------------------|
|-------------------------------|--8--8-8-8--8--8--8-8-8-8-8-8--|
|--4--4-4-4--4--4--4--4-4-4-4-4-|--8--8-8-8--8--8--8-8-8-8-8-8--|
|--4--4-4-4--4--4--4--4-4-4-4-4-|--6--6-6-6--6--6--6-6-6-6-6-6--|
|--2--2-2-2--2--2--2--2-2-2-2-2-|-------------------------------|


  Ab5                        Bb5
  Q.       S S E E   E E     Q.        S S  Q     Q
|--------------------------|----------------------------|
|--------------------------|----------------------------|
|----------8-6-8-6---5-8---|-6--------10-8-10-----------|
|-6------------------------|----------------------8-----|
|--------------------------|----------------------------|
|--------------------------|----------------------------|
|
| PM-----------------------------------------------------
| E  S S E S S E S S E S S   E  S S E  S S  E S S E S S
|--------------------------|----------------------------|
|--------------------------|----------------------------|
|--------------------------|-3--3-3-3--3-3--3-3-3-3-3-3-|
|-6--6-6-6-6-6-6-6-6-6-6-6-|-3--3-3-3--3-3--3-3-3-3-3-3-|
|-6--6-6-6-6-6-6-6-6-6-6-6-|-1--1-1-1--1-1--1-1-1-1-1-1-|
|-4--4-4-4-4-4-4-4-4-4-4-4-|----------------------------|


  Gb5
  +Q.        S  S  E  E   Q
|---------------------------------|
|---------------------------------|
|-----------11-10-11-10---8-------|
|-(8)-----------------------------|
|---------------------------------|
|---------------------------------|
|
|-----------------------------|
|  E  S S E  S  S  E  S S E S S
|---------------------------------|
|---------------------------------|
|---------------------------------|
|--4--4-4-4--4--4--4--4-4-4-4-4---|
|--4--4-4-4--4--4--4--4-4-4-4-4---|
|--2--2-2-2--2--2--2--2-2-2-2-2---|


  Eb5                            Ab5
  +Q.        S  S  Q     Q       Q.       S S E E   E E
|------------------------------|--------------------------|
|------------------------------|--------------------------|
|-(8)-------11-10-11-----------|----------8-6-8-6---5-8---|
|------------------------8-----|-6------------------------|
|------------------------------|--------------------------|
|------------------------------|--------------------------|
|
|  PM---------------------------------------------------|
|  E  S S E  S  S  E S S E S S   E  S S E S S E S S E S S
|------------------------------|--------------------------|
|------------------------------|--------------------------|
|--8--8-8-8--8--8--8-8-8-8-8-8-|--------------------------|
|--8--8-8-8--8--8--8-8-8-8-8-8-|-6--6-6-6-6-6-6-6-6-6-6-6-|
|--6--6-6-6--6--6--6-6-6-6-6-6-|-6--6-6-6-6-6-6-6-6-6-6-6-|
|------------------------------|-4--4-4-4-4-4-4-4-4-4-4-4-|


  Bb5      C5         Db5       Gb5
  Q.   S S Q.   S S    E E E  E Q   Q
|-------------------|------------------|
|-------------------|------------------|
|-6----5-6-8----6-8-|-10-8-6-------11--|
|-------------------|--------10-8------|
|-------------------|------------------|
|-------------------|------------------|
|
| H        H           H        Q   Q
|-------------------|------------------|
|-------------------|-----------7---7--|
|-3--------5--------|--6--------6---6--|
|-3--------5--------|--6--------4---4--|
|-1--------3--------|--4---------------|
|-------------------|------------------|


  F5                                    Bb5
   H.       S  S  S S    H.      E  E   W          +W
|---------------------|---------------|----------|--------||
|---------------------|---------------|----------|--------||
|-10-------10-11-10-8-|-10-------8-10-|----------|--------||
|---------------------|---------------|-8--------|-(8)----||
|---------------------|---------------|----------|--------||
|---------------------|---------------|----------|--------||
|
|                                       PM
|  W                     W              W          +W
|---------------------|---------------|----------|--------||
|--6------------------|--6------------|----------|--------||
|--5------------------|--5------------|-3--------|-(3)----||
|--3------------------|--3------------|-3--------|-(3)----||
|---------------------|---------------|-1--------|-(1)----||
|---------------------|---------------|----------|--------||


   Guitar Solo 1
    Q=175
    Eb5                       Db5
    E E   E E   E E   E E      E  E   E  E    E E    E  E
||--------6-------6---------|-------------------------------|
||o---7---------7-------7---|---------9---------9-----------|
||--8-------8---------8-----|----10----------10--------10---|
||--------------------------|-11--------11----------11------|
||o-------------------------|-------------------------------|
||--------------------------|-------------------------------|
|
|   PM-------------------------------------------------------
|   E S S E S S E S S E S S    E  S S E  S S  E S S  E  S S
||--------------------------|-------------------------------|
||o-4-4-4-4-4-4-4-4-4-4-4-4-|-------------------------------|
||--3-3-3-3-3-3-3-3-3-3-3-3-|--6--6-6-6--6-6--6-6-6--6--6-6-|
||--1-1-1-1-1-1-1-1-1-1-1-1-|--6--6-6-6--6-6--6-6-6--6--6-6-|
||o-------------------------|--4--4-4-4--4-4--4-4-4--4--4-4-|
||--------------------------|-------------------------------|


  Gb5
   E  E   E  E    E E    E  E
|---------9---------9------------|
|----11----------11--------11----|
|-11--------11----------11-------|
|--------------------------------|
|--------------------------------|
|--------------------------------|
|
|-----------------------------|
|  E  S S E  S S  E S S  E  S S
|--------------------------------|
|--------------------------------|
|--------------------------------|
|--4--4-4-4--4-4--4-4-4--4--4-5--|
|--4--4-4-4--4-4--4-4-4--4--4-5--|
|--2--2-2-2--2-2--2-2-2--2--2-3--|


  B5                        Ab5                    B5
  E E   E E   E E   E E     Q.       E   E E   E E
|-------------------------|--------------------------|
|-------7-------7---------|--------------------------|
|---8---------8-----------|--------------------------|
|-9-------9---------9-8---|-6--------9---9-8---6-----|
|-------------------------|----------------------9---|
|-------------------------|--------------------------|
|
| PM--------------------------------------------------
| E S S E S S E S S E S S   E  S S E S S E S S E S S
|-------------------------|--------------------------|
|-------------------------|--------------------------|
|-4-4-4-4-4-4-4-4-4-4-4-4-|------------------------4-|
|-4-4-4-4-4-4-4-4-4-4-4-4-|-6--6-6-6-6-6-6-6-6-6-6-4-|
|-2-2-2-2-2-2-2-2-2-2-2-2-|-6--6-6-6-6-6-6-6-6-6-6-2-|
|-------------------------|-4--4-4-4-4-4-4-4-4-4-4---|


 1.
  Db5                       Eb5
                            ~
  Q     Q     Q     Q       W
|-------------------------|--------------------------|
|-------------------------|--------------------------|
|-------------------------|-8------------------------|
|-------------------------|--------------------------|
|-9-----8-----6-----------|--------------------------|
|-------------------9-----|--------------------------|
|
|-------------------------------------------------|
| E S S E S S E S S E S S   E S S E S S E S S E S S
|-------------------------|--------------------------|
|-------------------------|-4-4-4-4-4-4-4-4-4-4-4-4--|
|-6-6-6-6-6-6-6-6-6-6-6-6-|-3-3-3-3-3-3-3-3-3-3-3-3--|
|-6-6-6-6-6-6-6-6-6-6-6-6-|-1-1-1-1-1-1-1-1-1-1-1-1--|
|-4-4-4-4-4-4-4-4-4-4-4-4-|--------------------------|
|-------------------------|--------------------------|


                              2.
  Bb5                         Db5
  ~
  W                           Q     Q     Q      Q
|--------------------------||--------------------------|
|-------------------------o||--------------------------|
|--------------------------||-8-----6------------------|
|-8------------------------||--------------------------|
|-------------------------o||-------------9-----11-----|
|--------------------------||--------------------------|
|
| PM----------------------------------------------------
| E S S E S S E S S E S S     E S S E S S E S S  E S S
|--------------------------||--------------------------|
|-------------------------o||--------------------------|
|-3-3-3-3-3-3-3-3-3-3-3-3--||-6-6-6-6-6-6-6-6-6--6-6-6-|
|-3-3-3-3-3-3-3-3-3-3-3-3--||-6-6-6-6-6-6-6-6-6--6-6-6-|
|-1-1-1-1-1-1-1-1-1-1-1-1-o||-4-4-4-4-4-4-4-4-4--4-4-4-|
|--------------------------||--------------------------|


  Eb5                       F5
  ~~~~~~~~~~~~~~~~~~~~~~~~~~~~~
  W                          W
|-------------------------|-------||
|-------------------------|-------||
|-------------------------|-------||
|-8-----------------------|-10----||
|-------------------------|-------||
|-------------------------|-------||
|
|-----------------------|
| E S S E S S E S S E S S    W
|-------------------------|-------||
|-4-4-4-4-4-4-4-4-4-4-4-4-|--6----||
|-3-3-3-3-3-3-3-3-3-3-3-3-|--5----||
|-1-1-1-1-1-1-1-1-1-1-1-1-|--3----||
|-------------------------|-------||
|-------------------------|-------||


 Main Riff
  Q=160
  Bb5               Ab5 Gb5                       Eb5                 Gb5
  Q.      S S  Q  Q     +Q.       S  S  E  E Q    +Q.      S  S  Q  Q
|---------------------|-------------------------|-----------------------|
|---------------------|-------------------------|-----------------------|
|--------10-8-10------|----------11-10-11-10-8--|-(8)-----11-10-11------|
|-8---------------8---|-(8)---------------------|-------------------8---|
|---------------------|-------------------------|-----------------------|
|---------------------|-------------------------|-----------------------|
|
| E  H.             E    E  E H.                   E  H.              E
|---------------------|-------------------------|-----------------------|
|---------------------|-------------------------|-----------------------|
|-3-------------------|-------------------------|--8--------------------|
|-3-----------------6-|--4----------------------|--8------------------4-|
|-1-----------------6-|--4----------------------|--6------------------4-|
|-------------------4-|--2----------------------|---------------------2-|

[ Tab from: http://www.guitartabs.cc/tabs/d/dispatched/final_countdown_tab_ver_2.html ]
  Ab5                   Bb5               Ab5 Gb5
  Q.      S S E E E E   Q.      S S  Q  Q     +Q.       S  S  E  E Q
|---------------------|---------------------|-------------------------|
|---------------------|---------------------|-------------------------|
|---------8-6-8-6-5-8-|-6------10-8-10------|----------11-10-11-10-8--|
|-6-------------------|-----------------8---|-(8)---------------------|
|---------------------|---------------------|-------------------------|
|---------------------|---------------------|-------------------------|
|
| PM-|
| E  E H.               E  H.             E    E  E H.
|---------------------|---------------------|-------------------------|
|---------------------|---------------------|-------------------------|
|---------------------|-3-------------------|-------------------------|
|-6-------------------|-3-----------------6-|--4----------------------|
|-6-------------------|-1-----------------6-|--4----------------------|
|-4-------------------|-------------------4-|--2----------------------|


  Eb5                 Gb5 Ab5                   Bb5      C5
  +Q.      S  S  Q  Q     Q.      S S E E E E   Q.   S S Q.   S S
|-----------------------|---------------------|-------------------|
|-----------------------|---------------------|-------------------|
|-(8)-----11-10-11------|---------8-6-8-6-5-8-|-6----5-6-8----6-8-|
|-------------------8---|-6-------------------|-------------------|
|-----------------------|---------------------|-------------------|
|-----------------------|---------------------|-------------------|
|
|                            PM
|  E  H.              E   E  E H.               H        H
|-----------------------|---------------------|-------------------|
|-----------------------|---------------------|-------------------|
|--8--------------------|---------------------|-3--------5--------|
|--8------------------4-|-6-------------------|-3--------5--------|
|--6------------------4-|-6-------------------|-1--------3--------|
|---------------------2-|-4-------------------|-------------------|


  Db5       Gb5      F5
   E E E  E Q   Q     H.       S  S  S S    H.      E  E
|------------------|---------------------|------------------|
|------------------|---------------------|------------------|
|-10-8-6-------11--|-10-------10-11-10-8-|-10-------8-10----|
|--------10-8------|---------------------|------------------|
|------------------|---------------------|------------------|
|------------------|---------------------|------------------|
|
|  H        Q   Q     W                     W
|------------------|---------------------|------------------|
|-----------7---7--|--6------------------|--6---------------|
|--6--------6---6--|--5------------------|--5---------------|
|--6--------4---4--|--3------------------|--3---------------|
|--4---------------|---------------------|------------------|
|------------------|---------------------|------------------|


  Bb5                          Gb5
  Q.        S S  Q     Q       +Q.        S  S  E  E   Q
|----------------------------|-------------------------------|
|----------------------------|-------------------------------|
|----------10-8-10-----------|-----------11-10-11-10---8-----|
|-8--------------------8-----|-(8)---------------------------|
|----------------------------|-------------------------------|
|----------------------------|-------------------------------|
|
| PM----------------------------------------------------------
| E  S S E  S S  E S S E S S    E  S S E  S  S  E  S S E S S
|----------------------------|-------------------------------|
|----------------------------|-------------------------------|
|-3--3-3-3--3-3--3-3-3-3-3-3-|-------------------------------|
|-3--3-3-3--3-3--3-3-3-3-3-3-|--4--4-4-4--4--4--4--4-4-4-4-4-|
|-1--1-1-1--1-1--1-1-1-1-1-1-|--4--4-4-4--4--4--4--4-4-4-4-4-|
|----------------------------|--2--2-2-2--2--2--2--2-2-2-2-2-|


  Eb5
  +Q.        S  S  Q     Q
|--------------------------------|
|--------------------------------|
|-(8)-------11-10-11-------------|
|------------------------8-------|
|--------------------------------|
|--------------------------------|
|
|----------------------------|
|  E  S S E  S  S  E S S E S S
|--------------------------------|
|--------------------------------|
|--8--8-8-8--8--8--8-8-8-8-8-8---|
|--8--8-8-8--8--8--8-8-8-8-8-8---|
|--6--6-6-6--6--6--6-6-6-6-6-6---|
|--------------------------------|


  Ab5                        Bb5
  Q.       S S E E   E E     Q.        S S  Q     Q
|--------------------------|----------------------------|
|--------------------------|----------------------------|
|----------8-6-8-6---5-8---|-6--------10-8-10-----------|
|-6------------------------|----------------------8-----|
|--------------------------|----------------------------|
|--------------------------|----------------------------|
|
| PM-----------------------------------------------------
| E  S S E S S E S S E S S   E  S S E  S S  E S S E S S
|--------------------------|----------------------------|
|--------------------------|----------------------------|
|--------------------------|-3--3-3-3--3-3--3-3-3-3-3-3-|
|-6--6-6-6-6-6-6-6-6-6-6-6-|-3--3-3-3--3-3--3-3-3-3-3-3-|
|-6--6-6-6-6-6-6-6-6-6-6-6-|-1--1-1-1--1-1--1-1-1-1-1-1-|
|-4--4-4-4-4-4-4-4-4-4-4-4-|----------------------------|


  Gb5
  +Q.        S  S  E  E   Q
|---------------------------------|
|---------------------------------|
|-----------11-10-11-10---8-------|
|-(8)-----------------------------|
|---------------------------------|
|---------------------------------|
|
|-----------------------------|
|  E  S S E  S  S  E  S S E S S
|---------------------------------|
|---------------------------------|
|---------------------------------|
|--4--4-4-4--4--4--4--4-4-4-4-4---|
|--4--4-4-4--4--4--4--4-4-4-4-4---|
|--2--2-2-2--2--2--2--2-2-2-2-2---|


  Eb5                            Ab5
  +Q.        S  S  Q     Q       Q.       S S E E   E E
|------------------------------|--------------------------|
|------------------------------|--------------------------|
|-(8)-------11-10-11-----------|----------8-6-8-6---5-8---|
|------------------------8-----|-6------------------------|
|------------------------------|--------------------------|
|------------------------------|--------------------------|
|
|  PM---------------------------------------------------|
|  E  S S E  S  S  E S S E S S   E  S S E S S E S S E S S
|------------------------------|--------------------------|
|------------------------------|--------------------------|
|--8--8-8-8--8--8--8-8-8-8-8-8-|--------------------------|
|--8--8-8-8--8--8--8-8-8-8-8-8-|-6--6-6-6-6-6-6-6-6-6-6-6-|
|--6--6-6-6--6--6--6-6-6-6-6-6-|-6--6-6-6-6-6-6-6-6-6-6-6-|
|------------------------------|-4--4-4-4-4-4-4-4-4-4-4-4-|


  Bb5      C5         Db5       Gb5
  Q.   S S Q.   S S    E E E  E Q   Q
|-------------------|------------------|
|-------------------|------------------|
|-6----5-6-8----6-8-|-10-8-6-------11--|
|-------------------|--------10-8------|
|-------------------|------------------|
|-------------------|------------------|
|
| H        H           H        Q   Q
|-------------------|------------------|
|-------------------|-----------7---7--|
|-3--------5--------|--6--------6---6--|
|-3--------5--------|--6--------4---4--|
|-1--------3--------|--4---------------|
|-------------------|------------------|


                                        Breakdown
  F5                    F5               Bb5
   H.       S  S  S S    H.      E  E    W
|---------------------|---------------||-----------------|
|---------------------|---------------||-----------------|
|-10-------10-11-10-8-|-10-------8-10-||-----------------|
|---------------------|---------------||-8---------------|
|---------------------|---------------||-----------------|
|---------------------|---------------||-----------------|
|
|                                        PM---------------
|  W                     W               E E E E E E E E
|---------------------|---------------||-----------------|
|--6------------------|--6------------||-----------------|
|--5------------------|--5------------||-3-3---3-3-3---3-|
|--3------------------|--3------------||-3-3---3-3-3---3-|
|---------------------|---------------||-1-1---1-1-1---1-|
|---------------------|---------------||-----------------|


  H       Q    Q     Q    Q    Q    Q
|------------------|----------------------|
|------------------|----------------------|
|------------------|----------------------|
|---------8--------|-----11---10----------|
|-------------11---|-8-------------11-----|
|------------------|----------------------|
|
|-------------------------------------|
| E E E E E E  E E   E E  E E  E E  E E
|------------------|----------------------|
|------------------|----------------------|
|-3-3---3-3-3----3-|-3-3----3--3-3----3---|
|-3-3---3-3-3----3-|-3-3----3--3-3----3---|
|-1-1---1-1-1----1-|-1-1----1--1-1----1---|
|------------------|----------------------|


  Bb5                    Ab5    Gb5        Ab5
  W                 W           W          W
|-----------------|-----------|----------|------|
|-----------------|-----------|----------|------|
|-----------------|-----------|----------|------|
|-8---------------|-----------|----------|------|
|-----------------|-----------|----------|------|
|-----------------|-----------|----------|------|
|
| PM------------|               TP         TP
| E E E E E E E E   H    H      W          W
|-----------------|-----------|----------|------|
|-----------------|-----------|----------|------|
|-3-3---3-3-3---3-|-3---------|----------|------|
|-3-3---3-3-3---3-|-3----6----|-4--------|-6----|
|-1-1---1-1-1---1-|-1----6----|-4--------|-6----|
|-----------------|------4----|-2--------|-4----|


  Db5  C5     Bb5  Ab5    Gb5        Ab5
  W           W           W          W
|-----------|-----------|----------|------|
|-----------|-----------|----------|------|
|-----------|-----------|----------|------|
|-----------|-----------|----------|------|
|-----------|-----------|----------|------|
|-----------|-----------|----------|------|
|
| TP   TP     TP   TP     TP         TP
| H    H      H    H      W          W
|-----------|-----------|----------|------|
|-----------|-----------|----------|------|
|-6----5----|-3---------|----------|------|
|-6----5----|-3----6----|-4--------|-6----|
|-4----3----|-1----6----|-4--------|-6----|
|-----------|------4----|-2--------|-4----|


                                   Guitar Solo 2
                                    Q=165
  Db5                               Bb5
  W                 W                E E    E  E    E E    E  E
|-----------------|-------------||--------------------------------|
|-----------------|-------------||o-------------------------------|
|-----------------|-------------||--10-------------10-------------|
|-----------------|-------------||-----8---10-11------8---10-11---|
|-----------------|-------------||o-------------------------------|
|-----------------|-------------||--------------------------------|
|
| E E E E E E E E   q  q  q  q       E S S  E  S S  E S S  E  S S
|-----------------|-------------||--------------------------------|
|-----------------|-------------||o-------------------------------|
|-6-6-6-6-6-6-6-6-|-6--6--6--6--||---3-3-3--3--3-3--3-3-3--3--3-3-|
|-6-6-6-6-6-6-6-6-|-6--6--6--6--||---3-3-3--3--3-3--3-3-3--3--3-3-|
|-4-4-4-4-4-4-4-4-|-4--4--4--4--||o--1-1-1--1--1-1--1-1-1--1--1-1-|
|-----------------|-------------||--------------------------------|


  Gb5                             Eb5
   E E    E  E    E E    E  E      E E    E  E    E E    E  E
|-------------------------------|-------------------------------|
|-------------------------------|-------------------------------|
|-11-------------11-------------|-10-------------10-------------|
|----8---10-11------8---10-11---|----8---10-11------8---10-11---|
|-------------------------------|-------------------------------|
|-------------------------------|-------------------------------|
|
|  E S S  E  S S  E S S  E  S S    E S S  E  S S  E S S  E  S S
|-------------------------------|-------------------------------|
|-------------------------------|-------------------------------|
|-------------------------------|--8-8-8--8--8-8--8-8-8--8--8-8-|
|--4-4-4--4--4-4--4-4-4--4--4-4-|--8-8-8--8--8-8--8-8-8--8--8-8-|
|--4-4-4--4--4-4--4-4-4--4--4-4-|--6-6-6--6--6-6--6-6-6--6--6-6-|
|--2-2-2--2--2-2--2-2-2--2--2-2-|-------------------------------|


  Ab5
   E E    E  E    H
|--------------------------------||
|-------------------------------o||
|--------------------------------||
|-10-8---------------------------||
|--------11-11---11-------------o||
|--------------------------------||
|
|  E S S  E  S S  E S S E S S
|--------------------------------||
|-------------------------------o||
|--------------------------------||
|--6-6-6--6--6-6--6-6-6-6-6-6----||
|--6-6-6--6--6-6--6-6-6-6-6-6---o||
|--4-4-4--4--4-4--4-4-4-4-4-4----||


 Main Riff
  Bb5                          Gb5
  Q.        S S  Q     Q       +Q.        S  S  E  E   Q
|----------------------------|-------------------------------|
|----------------------------|-------------------------------|
|----------10-8-10-----------|-----------11-10-11-10---8-----|
|-8--------------------8-----|-(8)---------------------------|
|----------------------------|-------------------------------|
|----------------------------|-------------------------------|
|
| PM----------------------------------------------------------
| E  S S E  S S  E S S E S S    E  S S E  S  S  E  S S E S S
|----------------------------|-------------------------------|
|----------------------------|-------------------------------|
|-3--3-3-3--3-3--3-3-3-3-3-3-|-------------------------------|
|-3--3-3-3--3-3--3-3-3-3-3-3-|--4--4-4-4--4--4--4--4-4-4-4-4-|
|-1--1-1-1--1-1--1-1-1-1-1-1-|--4--4-4-4--4--4--4--4-4-4-4-4-|
|----------------------------|--2--2-2-2--2--2--2--2-2-2-2-2-|


  Eb5
  +Q.        S  S  Q     Q
|--------------------------------|
|--------------------------------|
|-(8)-------11-10-11-------------|
|------------------------8-------|
|--------------------------------|
|--------------------------------|
|
|----------------------------|
|  E  S S E  S  S  E S S E S S
|--------------------------------|
|--------------------------------|
|--8--8-8-8--8--8--8-8-8-8-8-8---|
|--8--8-8-8--8--8--8-8-8-8-8-8---|
|--6--6-6-6--6--6--6-6-6-6-6-6---|
|--------------------------------|


  Ab5                        Bb5
  Q.       S S E E   E E     Q.        S S  Q     Q
|--------------------------|----------------------------|
|--------------------------|----------------------------|
|----------8-6-8-6---5-8---|-6--------10-8-10-----------|
|-6------------------------|----------------------8-----|
|--------------------------|----------------------------|
|--------------------------|----------------------------|
|
| PM-----------------------------------------------------
| E  S S E S S E S S E S S   E  S S E  S S  E S S E S S
|--------------------------|----------------------------|
|--------------------------|----------------------------|
|--------------------------|-3--3-3-3--3-3--3-3-3-3-3-3-|
|-6--6-6-6-6-6-6-6-6-6-6-6-|-3--3-3-3--3-3--3-3-3-3-3-3-|
|-6--6-6-6-6-6-6-6-6-6-6-6-|-1--1-1-1--1-1--1-1-1-1-1-1-|
|-4--4-4-4-4-4-4-4-4-4-4-4-|----------------------------|


  Gb5                             Eb5
  +Q.        S  S  E  E   Q       +Q.        S  S  Q     Q
|-------------------------------|-------------------------------|
|-------------------------------|-------------------------------|
|-----------11-10-11-10---8-----|-(8)-------11-10-11------------|
|-(8)---------------------------|------------------------8------|
|-------------------------------|-------------------------------|
|-------------------------------|-------------------------------|
|
|------------------------------------------------------------|
|  E  S S E  S  S  E  S S E S S    E  S S E  S  S  E S S E S S
|-------------------------------|-------------------------------|
|-------------------------------|-------------------------------|
|-------------------------------|--8--8-8-8--8--8--8-8-8-8-8-8--|
|--4--4-4-4--4--4--4--4-4-4-4-4-|--8--8-8-8--8--8--8-8-8-8-8-8--|
|--4--4-4-4--4--4--4--4-4-4-4-4-|--6--6-6-6--6--6--6-6-6-6-6-6--|
|--2--2-2-2--2--2--2--2-2-2-2-2-|-------------------------------|


  Ab5                        Bb5      C5
  Q.       S S E E   E E     Q.   S S Q.   S S
|--------------------------|-------------------|
|--------------------------|-------------------|
|----------8-6-8-6---5-8---|-6----5-6-8----6-8-|
|-6------------------------|-------------------|
|--------------------------|-------------------|
|--------------------------|-------------------|
|
| PM---------------------|
| E  S S E S S E S S E S S   H        H
|--------------------------|-------------------|
|--------------------------|-------------------|
|--------------------------|-3--------5--------|
|-6--6-6-6-6-6-6-6-6-6-6-6-|-3--------5--------|
|-6--6-6-6-6-6-6-6-6-6-6-6-|-1--------3--------|
|-4--4-4-4-4-4-4-4-4-4-4-4-|-------------------|


  Db5       Gb5      F5
   E E E  E Q   Q     H.       S  S  S S    H.      E  E
|------------------|---------------------|---------------||
|------------------|---------------------|---------------||
|-10-8-6-------11--|-10-------10-11-10-8-|-10-------8-10-||
|--------10-8------|---------------------|---------------||
|------------------|---------------------|---------------||
|------------------|---------------------|---------------||
|
|  H        Q   Q     W                     W
|------------------|---------------------|---------------||
|-----------7---7--|--6------------------|--6------------||
|--6--------6---6--|--5------------------|--5------------||
|--6--------4---4--|--3------------------|--3------------||
|--4---------------|---------------------|---------------||
|------------------|---------------------|---------------||


 Outro
  Bb5
  W                            +W
|----------------------------|------------------------------|
|----------------------------|------------------------------|
|----------------------------|------------------------------|
|-8--------------------------|-(8)--------------------------|
|----------------------------|------------------------------|
|----------------------------|------------------------------|
|
| PM---------------------------------------------------------
| S S S S E S S S E. S S S S    S  S S S E S S S E. S S S S
|----------------------------|------------------------------|
|----------------------------|------------------------------|
|-3-3-3-----3-3-3----3-3-3---|--3--3-3-----3-3-3----3-3-3---|
|-3-3-3-----3-3-3----3-3-3---|--3--3-3-----3-3-3----3-3-3---|
|-1-1-1-----1-1-1----1-1-1---|--1--1-1-----1-1-1----1-1-1---|
|----------------------------|------------------------------|


  W                            W
|----------------------------|------------------------------|
|----------------------------|------------------------------|
|----------------------------|------------------------------|
|----------------------------|------------------------------|
|----------------------------|------------------------------|
|----------------------------|------------------------------|
|
|-------------------------------------------------------|
| S S S S E S S S E. S S S S   S S S S E S S S E. S S S S
|----------------------------|------------------------------|
|----------------------------|------------------------------|
|-3-3-3-----3-3-3----3-3-3---|-3-3-3-----3-3-3----3-3-3-----|
|-3-3-3-----3-3-3----3-3-3---|-3-3-3-----3-3-3----3-3-3-----|
|-1-1-1-----1-1-1----1-1-1---|-1-1-1-----1-1-1----1-1-1-----|
|----------------------------|------------------------------|


  Bb5                             Gb5
  Q.          S S  Q    Q         +Q.          S  S  E     E Q
|-------------------------------|------------------------------------|
|-------------------------------|------------------------------------|
|------------10-8-10------------|-------------11-10-11----10-8-------|
|-8---------------------8-------|-(8)--------------------------------|
|-------------------------------|------------------------------------|
|-------------------------------|------------------------------------|
|
| PM---|      PM--|     PM--|      PM---|      PM---|          PM|
| S  S S S E  S S  S E. S S S S    S  S S S E  S  S  S E.    S S S S
|-------------------------------|------------------------------------|
|-------------------------------|------------------------------------|
|-3--3-3------3-3--3----3-3-3---|------------------------------------|
|-3--3-3------3-3--3----3-3-3---|--4--4-4------4--4--4-------4-4-4---|
|-1--1-1------1-1--1----1-1-1---|--4--4-4------4--4--4-------4-4-4---|
|-------------------------------|--2--2-2------2--2--2-------2-2-2---|


  Eb5                               Ab5
  +Q.          S  S  Q    Q         Q.         S S E    E E   E
|---------------------------------|-------------------------------|
|---------------------------------|-------------------------------|
|-(8)---------11-10-11------------|------------8-6-8----6-5---8---|
|-------------------------8-------|-6-----------------------------|
|---------------------------------|-------------------------------|
|---------------------------------|-------------------------------|
|
|  PM---|      PM---|       PM|     PM---|     PM--|        PM|
|  S  S S S E  S  S  S E. S S S S   S  S S S E S S S E.   S S S S
|---------------------------------|-------------------------------|
|---------------------------------|-------------------------------|
|--8--8-8------8--8--8----8-8-8---|-------------------------------|
|--8--8-8------8--8--8----8-8-8---|-6--6-6-----6-6-6------6-6-6---|
|--6--6-6------6--6--6----6-6-6---|-6--6-6-----6-6-6------6-6-6---|
|---------------------------------|-4--4-4-----4-4-4------4-4-4---|


  Bb5                             Gb5
  Q.          S S  Q    Q         +Q.          S  S  E     E Q
|-------------------------------|------------------------------------|
|-------------------------------|------------------------------------|
|-6----------10-8-10------------|-------------11-10-11----10-8-------|
|-----------------------8-------|-(8)--------------------------------|
|-------------------------------|------------------------------------|
|-------------------------------|------------------------------------|
|
| PM---|      PM--|     PM|        PM---|      PM---|          PM|
| S  S S S E  S S  S E. S S S S    S  S S S E  S  S  S E.    S S S S
|-------------------------------|------------------------------------|
|-------------------------------|------------------------------------|
|-3--3-3------3-3--3----3-3-3---|------------------------------------|
|-3--3-3------3-3--3----3-3-3---|--4--4-4------4--4--4-------4-4-4---|
|-1--1-1------1-1--1----1-1-1---|--4--4-4------4--4--4-------4-4-4---|
|-------------------------------|--2--2-2------2--2--2-------2-2-2---|


  Eb5                               Ab5
  +Q.          S  S  Q    Q         Q.         S S E    E E   E
|---------------------------------|-------------------------------|
|---------------------------------|-------------------------------|
|-(8)---------11-10-11------------|------------8-6-8----6-5---8---|
|-------------------------8-------|-6-----------------------------|
|---------------------------------|-------------------------------|
|---------------------------------|-------------------------------|
|
|  PM---|      PM---|       PM|     PM---|     PM--|      PM--|
|  S  S S S E  S  S  S E. S S S S   S  S S S E S S S E.   S S S S
|---------------------------------|-------------------------------|
|---------------------------------|-------------------------------|
|--8--8-8------8--8--8----8-8-8---|-------------------------------|
|--8--8-8------8--8--8----8-8-8---|-6--6-6-----6-6-6------6-6-6---|
|--6--6-6------6--6--6----6-6-6---|-6--6-6-----6-6-6------6-6-6---|
|---------------------------------|-4--4-4-----4-4-4------4-4-4---|


  Bb5      C5         Db5       Gb5
  Q.   S S Q.   S S    E E E  E Q   Q
|-------------------|------------------|
|-------------------|------------------|
|-6----5-6-8----6-8-|-10-8-6-------11--|
|-------------------|--------10-8------|
|-------------------|------------------|
|-------------------|------------------|
|
| H        H           H        Q   Q
|-------------------|------------------|
|-------------------|-----------7---7--|
|-3--------5--------|--6--------6---6--|
|-3--------5--------|--6--------4---4--|
|-1--------3--------|--4---------------|
|-------------------|------------------|


  F5                                    Bb5
   H.       S  S  S S    H.      E  E   W          +W
|---------------------|---------------|----------|--------*|
|---------------------|---------------|----------|--------*|
|-10-------10-11-10-8-|-10-------8-10-|----------|--------*|
|---------------------|---------------|-8--------|-(8)----*|
|---------------------|---------------|----------|--------*|
|---------------------|---------------|----------|--------*|
|
|  W                     W              W          +W
|---------------------|---------------|----------|--------*|
|--6------------------|--6------------|----------|--------*|
|--5------------------|--5------------|-3--------|-(3)----*|
|--3------------------|--3------------|-3--------|-(3)----*|
|---------------------|---------------|-1--------|-(1)----*|
|---------------------|---------------|----------|--------*|


Duration Legend
---------------
W - whole; H - half; Q - quarter; E - 8th; S - 16th; T - 32nd; X - 64th; a - acciaccatura
+ - note tied to previous; . - note dotted; .. - note double dotted
Uncapitalized letters represent notes that are staccato (1/2 duration)
Irregular groupings are notated above the duration line
Duration letters will always appear directly above the note/fret number it represents the
duration for.  Duration letters with no fret number below them represent rests.  Multi-
bar rests are notated in the form Wxn, where n is the number of bars to rest for.  Low
melody durations appear below the staff

Tablature Legend
----------------
 h   - hammer-on
 p   - pull-off
 b   - bend
 pb  - pre-bend
 r   - bend release (if no number after the r, then release immediately)
 /\  - slide into or out of (from/to "nowhere")
 s   - legato slide
 S   - shift slide
  - natural harmonic
[n]  - artificial harmonic
n(n) - tapped harmonic
 ~   - vibrato
 tr  - trill
 T   - tap
 TP  - trem. picking
 PM  - palm muting
\n/  - tremolo bar dip; n = amount to dip
 \n  - tremolo bar down
 n/  - tremolo bar up
/n\  - tremolo bar inverted dip
 =   - hold bend; also acts as connecting device for hammers/pulls
 <>  - volume swell (louder/softer)
 x   - on rhythm slash represents muted slash
 o   - on rhythm slash represents single note slash

Misc Legend
-----------
 |  - bar
||  - double bar
||o - repeat start
o|| - repeat end
*|  - double bar (ending)
 :  - bar (freetime)
 $  - Segno
 &  - Coda
Tempo markers -  = BPM(8/16=s8/s16), where s8 = swing 8ths, s16 = swing 16ths
Comments