Dispatch - Whirlwind Chords & Tabs

 

Whirlwind Chords & Tabs

Dispatch Chords & Tabs

Version: 1 Type: Tab 0 ratings
1 star 2 stars 3 stars 4 stars 5 stars
comments

Whirlwind Tab

Dispatch - Whirlwind

standard tuning - EADGBe

This is what i got so far...some of it might not be exactly right so bare with me. - michael


Intro (repeat):
e|--0--0-0-0-0---0--0--0-0-0---0--0-0-0-0--0-------------|
B|--5--5-5-5-5---3--3--3-3-3---2--2-2-2-2--2-------------|
G|--0--0-0-0-0---0--0--0-0-0---0--0-0-0-0--0-------------|
D|--5--5-5-5-5---5--5--5-5-5---2--2-2-2-2--2-------------|
A|--0--0-0-0-0---0--0--0-0-0---0--0-0-0-0--0-------------|
E|-------------------------------------------------------|


Verse:
e|--0--0-0-0-0---0--0--0-0-0---0--0-0-0-0--0-------------|
B|--5--5-5-5-5---3--3--3-3-3---2--2-2-2-2--2-------------|
G|--0--0-0-0-0---0--0--0-0-0---0--0-0-0-0--0-------------|
D|--5--5-5-5-5---5--5--5-5-5---2--2-2-2-2--2-------------|
A|--0--0-0-0-0---0--0--0-0-0---0--0-0-0-0--0-------------|
E|-------------------------------------------------------|
    A whirlind came... and it tried to rescue me

e|--0--0-0-0-0---0--0--0-0-0---0--0-0-0-0--0-------------|
B|--5--5-5-5-5---3--3--3-3-3---2--2-2-2-2--2-------------|
G|--0--0-0-0-0---0--0--0-0-0---0--0-0-0-0--0-------------|
D|--5--5-5-5-5---5--5--5-5-5---2--2-2-2-2--2-------------|
A|--0--0-0-0-0---0--0--0-0-0---0--0-0-0-0--0-------------|
E|-------------------------------------------------------|
    Will you come...   will you tell me seriously

e|--0--0-0-0-0---0--0--0-0-0---0--0-0-0-0--0-------------|
B|--5--5-5-5-5---3--3--3-3-3---2--2-2-2-2--2-------------|
G|--0--0-0-0-0---0--0--0-0-0---0--0-0-0-0--0-------------|
D|--5--5-5-5-5---5--5--5-5-5---2--2-2-2-2--2-------------|
A|--0--0-0-0-0---0--0--0-0-0---0--0-0-0-0--0-------------|
E|-------------------------------------------------------|
   Twistin, burnin...        back to you again

e|--0--0-0-0-0---0--0--0-0-0---0--0-0-0-0--0-------------|
B|--5--5-5-5-5---3--3--3-3-3---2--2-2-2-2--2-------------|
G|--0--0-0-0-0---0--0--0-0-0---0--0-0-0-0--0-------------|
D|--5--5-5-5-5---5--5--5-5-5---2--2-2-2-2--2-------------|
A|--0--0-0-0-0---0--0--0-0-0---0--0-0-0-0--0-------------|
E|-------------------------------------------------------|
   Sweet thang               take me to the end

e|--7----7----7----7----------x-x---------------------------|
B|--7----7----7----7---12-12--x-x---12--13--12--------------|
G|--8----8----8----8---x--x---x-x---x---x---x---------------|
D|--7----7----7----7---12-12--x-x---12--13--12--------------|
A|--9----9----9----9---10-10--x-x---10--11--10--------------|
E|--7----7----7----7----------x-x---------------------------|
   You better dig and...             ...inside your-

e|--0--0-0-0-0---0--0--0-0-0---0--0-0-0-0--0-------------|
B|--5--5-5-5-5---3--3--3-3-3---2--2-2-2-2--2-------------|
G|--0--0-0-0-0---0--0--0-0-0---0--0-0-0-0--0-------------|
D|--5--5-5-5-5---5--5--5-5-5---2--2-2-2-2--2-------------|
A|--0--0-0-0-0---0--0--0-0-0---0--0-0-0-0--0-------------|
E|-------------------------------------------------------|
   self

(repeat for 2nd verse)

[ Tab from: http://www.guitartabs.cc/tabs/d/dispatch/whirlwind_tab.html ]
Chorus (repeat):

e|--12--12-12-12--12-12-12---10--10-10-10--10-10-10---9---9--9--9---------|
B|--12--12-12-12--12-12-12---12--12-12-12--12-12-12---10--10-10-10--------|
G|--x---x--x--x---x--x--x----x---x--x--x---x--x--x----x---x--x--x---------|
D|--12--12-12-12--12-12-12---12--12-12-12--12-12-12---12--12-12-12--------|
A|--0---0--0--0---0--0--0----0---0--0--0---0--0--0----0---0--0--0---------|
E|------------------------------------------------------------------------|
   she                                  wants to be   free


e|--12--12-12-12--12-12-12---10--10-10-10--10-10-10---9---9--9--9---------|
B|--12--12-12-12--12-12-12---12--12-12-12--12-12-12---10--10-10-10--------|
G|--x---x--x--x---x--x--x----x---x--x--x---x--x--x----x---x--x--x---------|
D|--12--12-12-12--12-12-12---12--12-12-12--12-12-12---12--12-12-12--------|
A|--0---0--0--0---0--0--0----0---0--0--0---0--0--0----0---0--0--0---------|
E|------------------------------------------------------------------------|
    I                                        wanna     know


e|--0--0-0-0-0---0--0--0-0-0---0--0-0-0-0--0-------------|
B|--5--5-5-5-5---3--3--3-3-3---2--2-2-2-2--2-------------|
G|--0--0-0-0-0---0--0--0-0-0---0--0-0-0-0--0-------------|
D|--5--5-5-5-5---5--5--5-5-5---2--2-2-2-2--2-------------|
A|--0--0-0-0-0---0--0--0-0-0---0--0-0-0-0--0-------------|
E|-------------------------------------------------------|


Fill:

e|---9/7--7--14-14/9------9/7--7--14--14/9----|
B|--------------------------------------------|
G|--11/9--9--16-16/11----11/9--9--16--16/11---|
D|--11/9--9--16-16/11----11/9--9--16--16/11---|
A|--------------------------------------------|
E|--------------------------------------------|


e|---9/7--7--14-14/9------9/7--7----------/12-|
B|--------------------------------------------|
G|--11/9--9--16-16/11----11/9--9--9-7-----/14-|
D|--11/9--9--16-16/11----11/9--9------9-------|
A|--------------------------------------------|
E|--------------------------------------------|


Repeat 1st Verse


Fill(repeat x4):

(improvise and strum really fast - listen to the song to get the idea)
e|---------------------------------------0-0-0-0-0-0-0-0-0-0-0-0--|
B|---------------------------------------5-5-5-4-4-4-3-3-3-2-2-2--|
G|--1-1-111--2-2-222--3-3-333--4-4-444---x-x-x-x-x-x-x-x-x-x-x-x--|
D|--0-0-000--1-1-111--2-2-222--3-3-333---5-5-5-4-4-4-3-3-3-2-2-2--|
A|--2-2-222--3-3-333--4-4-444--5-5-555---0-0-0-0-0-0-0-0-0-0-0-0--|
E|--0-0-000--1-1-111--2-2-222--3-3-333----------------------------|


Repeat Chorus

Outro(repeat):
e|--0--0-0-0-0---0--0--0-0-0---0--0-0-0-0--0-------------|
B|--5--5-5-5-5---3--3--3-3-3---2--2-2-2-2--2-------------|
G|--0--0-0-0-0---0--0--0-0-0---0--0-0-0-0--0-------------|
D|--5--5-5-5-5---5--5--5-5-5---2--2-2-2-2--2-------------|
A|--0--0-0-0-0---0--0--0-0-0---0--0-0-0-0--0-------------|
E|-------------------------------------------------------|


any suggestions or questions, email me - simpleman1200@hotmail.com
Comments