Dispatch - Way It Goes Chords & Tabs

 

Way It Goes Chords & Tabs

Dispatch Chords & Tabs

Version: 1 Type: Tab 0 ratings
1 star 2 stars 3 stars 4 stars 5 stars
comments

Way It Goes Tab

   
The way it goes. off the REMASTERED version of Bang Bang

() - Play last time only

 Am	G	FM7
-0------3-------0---0---0--|
-1------3-------1---1---1--|
-2------0-------2---0h2-2--|	x6
-2------0-------3---3---3--|
-0------2------------------|
--------3------------------|

 Am	G	FM7
-0------3-------0--|
-1------3-------1--|
-2------0-------2--|	x2
-2------0-------3--|
-0------2----------|
--------3----------|

 F	G	Am	Am	F	G	Am	Am
-1------3-------0-------0-0-0---1-------3-------0-------0--|
-1------3-------1-------1-1-1---1-------3-------1-------1--|
-2------0-------2-------2-0-0---2-------0-------2-------2--|	x1
-3------0-------2-------2-2-0---3-------0-------2-------2--|
-3------2-------0-------0-0-0---3-------2-------0-------0--|
-1------3-----------------------1-------3------------------|

 F	G	Am	Am	F	G	Am	G	FM7
-1------3-------0-------0-0-0---1-------3-------0-------3-------0---0---0--|
-1------3-------1-------1-1-1---1-------3-------1-------3-------1---1---1--|
-2------0-------2-------2-0-0---2-------0-------2-------0-------2---0h2-2--|	x1
-3------0-------2-------2-2-0---3-------0-------2-------0-------3---3---3--|
-3------2-------0-------0-0-0---3-------2-------0-------2------------------|
-1------3-----------------------1-------3---------------3------------------|

 Am	G	FM7
-0------3-------0---0---0--|
-1------3-------1---1---1--|
-2------0-------2---0h2-2--|	x3
-2------0-------3---3---3--|
-0------2------------------|
--------3------------------|

 Am	G	FM7
-0------3-------0--|
-1------3-------1--|
-2------0-------2--|	x2
-2------0-------3--|
-0------2----------|
--------3----------|

 Am	G	FM7
-0------3-------0---0---0--|
-1------3-------1---1---1--|
-2------0-------2---0h2-2--|	x2
-2------0-------3---3---3--|
-0------2------------------|
--------3------------------|

 Am	G	FM7
-0------3-------0--|
-1------3-------1--|
-2------0-------2--|	x2
-2------0-------3--|
-0------2----------|
--------3----------|

 F	G	Am	Am	F	G	Am	Am
-1------3-------0-------0-0-0---1-------3-------0-------0--|
-1------3-------1-------1-1-1---1-------3-------1-------1--|
-2------0-------2-------2-0-0---2-------0-------2-------2--|	x1
-3------0-------2-------2-2-0---3-------0-------2-------2--|
-3------2-------0-------0-0-0---3-------2-------0-------0--|
-1------3-----------------------1-------3------------------|

 F	G	Am	Am	F	G	Am	G	FM7
-1------3-------0-------0-0-0---1-------3-------0-------3-------0---0---0--|
-1------3-------1-------1-1-1---1-------3-------1-------3-------1---1---1--|
-2------0-------2-------2-0-0---2-------0-------2-------0-------2---0h2-2--|	x1
-3------0-------2-------2-2-0---3-------0-------2-------0-------3---3---3--|
-3------2-------0-------0-0-0---3-------2-------0-------2------------------|
-1------3-----------------------1-------3---------------3------------------|
[ Tab from: http://www.guitartabs.cc/tabs/d/dispatch/way_it_goes_tab.html ]
 Am	G	FM7
-0------3-------0---0---0--|
-1------3-------1---1---1--|
-2------0-------2---0h2-2--|	x1
-2------0-------3---3---3--|
-0------2------------------|
--------3------------------|

 Dm	F	C	F	Dm	F	G
-1------1-------0-------1-------1-------1-------3--|
-3------1-------1-------1-------3-------1-------3--|
-2------2-------0-------2-------2-------2-------4--|	x2
-0------3-------2-------3-------0-------3-------5--|
--------3-------3-------3---------------3-------5--|
--------1---------------1---------------1-------3--|

 Am	G	FM7
-0------3-------0---0---0--|
-1------3-------1---1---1--|
-2------0-------2---0h2-2--|	x5
-2------0-------3---3---3--|
-0------2------------------|
--------3------------------|

 Am	G	FM7
-0------3-------0--|
-1------3-------1--|
-2------0-------2--|	x1
-2------0-------3--|
-0------2----------|
--------3----------|

 F	G	Am	Am	F	G	Am	Am
-1------3-------0-------0-0-0---1-------3-------0-------0--|
-1------3-------1-------1-1-1---1-------3-------1-------1--|
-2------0-------2-------2-0-0---2-------0-------2-------2--|	x1
-3------0-------2-------2-2-0---3-------0-------2-------2--|
-3------2-------0-------0-0-0---3-------2-------0-------0--|
-1------3-----------------------1-------3------------------|

 F	G	Am	Am	F	G	Am	G	FM7
-1------3-------0-------0-0-0---1-------3-------0-------3-------0---0---0--|
-1------3-------1-------1-1-1---1-------3-------1-------3-------1---1---1--|
-2------0-------2-------2-0-0---2-------0-------2-------0-------2---0h2-2--|	x1
-3------0-------2-------2-2-0---3-------0-------2-------0-------3---3---3--|
-3------2-------0-------0-0-0---3-------2-------0-------2------------------|
-1------3-----------------------1-------3---------------3------------------|

 Am	G	FM7
-0------3-------0---0---0--|
-1------3-------1---1---1--|
-2------0-------2---0h2-2--|	x1
-2------0-------3---3---3--|
-0------2------------------|
--------3------------------|

 Dm	F	C	F	Dm	F	G
-1------1-------0-------1-------1-------1-------3--|
-3------1-------1-------1-------3-------1-------3--|
-2------2-------0-------2-------2-------2-------4--|	x2
-0------3-------2-------3-------0-------3-------5--|
--------3-------3-------3---------------3-------5--|
--------1---------------1---------------1-------3--|

 Am	G	FM7
-0------3-------0---0---0--|
-1------3-------1---1---1--|
-2------0-------2---0h2-2--|	x3
-2------0-------3---3---3--|
-0------2------------------|
--------3------------------|

 Am	G	FM7	Am	G	FM7
-0------3-------0-------0-------3-------0---0---0--|
-1------3-------1-------1-------3-------1---1---1--|
-2------0-------2-------2-------0-------2---0h2-2--|	x3
-2------0-------3-------2-------0-------3---3---3--|
-0------2---------------0-------2------------------|
--------3-----------------------3------------------|

 Am	G	F      (C)
-0------3-------1------(0)--|
-1------3-------1------(1)--|
-2------0-------2------(0)--|	x5
-2------0-------3------(2)--|
-0------2-------3------(3)--|
--------3-------1-----------|
Comments