Dispatch - Water Stop Chords & Tabs

 

Water Stop Chords & Tabs

Dispatch Chords & Tabs

Version: 1 Type: Tab 1 rating
1 star 2 stars 3 stars 4 stars 5 stars
comments

Water Stop Tab

   
"Water Stop"
Dispatch
Tabbed by Rob Stewart, topdawg039@yahoo.com

Verse Chords: Dmin, Amin, G, F

"other part" chords: C, G, Dmin>Amin, F


Aaaah and now the exciting part.  The solo.

Solo1
--5-8-5-----5------------------------------------------------------------
--------8-5-----5-8-5-----8-5---8-5---6-5------------6-5-----------------
------------------------7-----7-----------7-5--5/7--------7-5-5----------
-----------------------------------------------------------------5/7-----
-------------------------------------------------------------------------
-------------------------------------------------------------------------
[ Tab from: http://www.guitartabs.cc/tabs/d/dispatch/water_stop_tab.html ]
--3---0-----10--8-----7/8-8--8-8/10--10---7/8-8-8/12---------------------
-------------------------------------------------------------------------
------------7---5-----4/5-5--5-5/7----7---4/5-5-5/9----------------------
-------------------------------------------------------------------------
-------------------------------------------------------------------------
-------------------------------------------------------------------------
Solo2
-------------------------------------------------------------------------
-------------------------------------------------------------------------
-------------------------------------------------------------------------
-6/7--7--7/9--9--9/10--10--10/12--12/14--14------------------------------
-------------------------------------------------------------------------
-4/5--5--5/7--7--7/8----8--8/10---10/12--12------------------------------

-12-12-12--10--10--8---8---7--7--10---------------------12--12--15-15-15--17-17-17--
-13-13-13--12--12--10--10--8--8--12------Twice-then...--13--13--13-13-13--13-13-13--
------------------------------------------------------------------------------------
------------------------------------------------------------------------------------
------------------------------------------------------------------------------------
------------------------------------------------------------------------------------
Comments