Dispatch - Walk With You Flute Intro Chords & Tabs

 

Walk With You Flute Intro Chords & Tabs

Dispatch Chords & Tabs

Version: 1 Type: Tab 0 ratings
1 star 2 stars 3 stars 4 stars 5 stars
comments

Walk With You Flute Intro Tab

This is a really accurate tab that took me till 1:30 in the morning to do
hope you enjoy it
jim

|---------------------------------------------------
|---------------------------------------------------
|--9------11---9-------9------11-------9------------
|---------------------------------------------------
|---------------------------------------------------
|---------------------------------------------------

|------------------------------------------------------------------------------------------------
|-----------9-----------------9-----12--8--9-----12--8--9----12--8--9--8-------------------------
|--9--11------------9--11--------------------11-----------11----------------9--11----14p12p9-----
|------------------------------------------------------------------------------------------------
|------------------------------------------------------------------------------------------------
|------------------------------------------------------------------------------------------------

|--------------------------------------
|--9--10--12------12h14p12p10h12-------
|--------------------------------------
|--------------------------------------
|--------------------------------------
|--------------------------------------

[ Tab from: http://www.guitartabs.cc/tabs/d/dispatch/walk_with_you_flute_intro_tab.html ]
(4x)
|-----------------12--[-14p12p10---12--10------9--10--9---------------------]
|--9--10--12----------[----------------------2-------------10--10--10h12----]
|---------------------[-----------------------------------------------------]
|---------------------[-----------------------------------------------------]
|---------------------[-----------------------------------------------------]
|---------------------[-----------------------------------------------------]

|-----------------9--11h12--9---------------------9--11h12--
|-----------12--------------------12-----------12-----------
|--9--11-------------------------------9--11----------------
|-----------------------------------------------------------
|-----------------------------------------------------------
|-----------------------------------------------------------

|---------------11--12/14--12--11-----------
|----------12--------------------------12---
|--9--11------------------------------------
|-------------------------------------------
|-------------------------------------------
|-------------------------------------------



(x2)
|--------------------------------------------
|----------9--10--9--10--12--10--9--10--9----
|--9--11-------------------------------------
|--------------------------------------------
|--------------------------------------------
|--------------------------------------------

|------------------------9------11-12------11-------9-----------------9------------------
|----------9--10--9--10-----10----------12------10-------10--------------10--------------
|--9--11------------------------------------------------------8--9------------8--9-------
|----------------------------------------------------------------------------------------
|----------------------------------------------------------------------------------------
|----------------------------------------------------------------------------------------

submitted by EliMusic
Comments