Dispatch - Two Coins Chords & Tabs

 

Two Coins Chords & Tabs

Dispatch Chords & Tabs

Version: 5 Type: Tab 0 ratings
1 star 2 stars 3 stars 4 stars 5 stars
comments

Two Coins Tab

"Two Coins"
Dispatch
Tabbed by: Alex Fallon

Standard tuning.  Play without a pick for the mellow sound.  At the end of the chord
slap/palm mute the strings to silence them all at once.  Great song, and enjoy!

Intro
e --------------------2------------1-------------------2----------1--|
B ------0h1p0---------3----1-1-1---0-------------------3--1-1-1---0--|
G --0-----------------2----0-0-0---0----3p0-0-3-0------2--0-0-0---0--|
D ------------2-0-----0----2-2-2---0--------------3-0--0--2-2-2---0--|
A -------------------------3-3-3---2----------------------3-3-3---2--|
E ---------------------------------3------------------------------3--|


Verse Riff (x9)
e -----------------------2----------------1--|
B ------0h1p0------------3------1-1-1-----0--|
G --0--------------------2------0-0-0-----0--|
D ---------------2-0-----0------2-2-2-----0--|
A ------------------------------3-3-3-----2--|
E ----------------------------------------3--|


Break
e - 2-2-2----1-1-1-1-1-1-1-1---2-2-2---0-00-0-0-0-0-0-0-0-0-|
B - 3-3-3----0-0-0-0-0-0-0-0---3-3-3---1-11-1-1-1-1-1-1-1-1-|
G - 2-2-2----0-0-0-0-0-0-0-0---2-2-2---0-00-0-0-0-0-0-0-0-0-|
D -------------------------------------2-22-2-2-2-2-2-2-2-2-|
A -------------------------------------3-33-3-3-3-3-3-3-3-3-|
E -----------------------------------------------------------|


Verse Riff x3
e -----------------------2----------------1--|
B ------0h1p0------------3------1-1-1-----0--|
G --0--------------------2------0-0-0-----0--|
D ---------------2-0-----0------2-2-2-----0--|
A ------------------------------3-3-3-----2--|
E ----------------------------------------3--|

Alternate Verse Riff
e -----------------2----------1-------------------2----------1-------------|
B ----0h1p0--------3--1-1-1---0----0h1p0----------3--1-1-1---0-------------|
G -0---------------2--0-0-0---0--0----------------2--0-0-0---0-------------|
D ----------2-0----0--2-2-2---0-----------2-0-----0--2-2-2---0-------------|
A --------------2-----3-3-3---2---------------2------3-3-3---2---2h3p2h3---|
E ----------------------------3------------------------------3-------------|
[ Tab from: http://www.guitartabs.cc/tabs/d/dispatch/two_coins_tab_ver_5.html ]
e -----------------2----------1-------------------2----------1--|
B ----0h1p0--------3--1-1-1---0----0h1p0----------3--1-1-1---0--|
G -0---------------2--0-0-0---0--0----------------2--0-0-0---0--|
D ----------2-0----0--2-2-2---0-----------2-0-----0--2-2-2---0--|
A --------------2-----3-3-3---2---------------2------3-3-3---2--|
E ----------------------------3------------------------------3--|


Harmonica solo with break underneath
e -----3~-----------------------3~-----------------------|
B --3~----3-5--5-3-----------3~-----3-5b5-3-------------|
G -----------------4--------------------------4-5---4----|
D -------------------5~--------------------------------5-|
A -------------------------------------------------------|
E -------------------------------------------------------|


Verse Riff x5
e -----------------------2----------------1--|
B ------0h1p0------------3------1-1-1-----0--|
G --0--------------------2------0-0-0-----0--|
D ---------------2-0-----0------2-2-2-----0--|
A ------------------------------3-3-3-----2--|
E ----------------------------------------3--|


Intro
e --------------------2------------1-------------------2----------1--|
B ------0h1p0---------3----1-1-1---0-------------------3--1-1-1---0--|
G --0-----------------2----0-0-0---0----3p0-0-3-0------2--0-0-0---0--|
D ------------2-0-----0----2-2-2---0--------------3-0--0--2-2-2---0--|
A -------------------------3-3-3---2----------------------3-3-3---2--|
E ---------------------------------3------------------------------3--|

Verse Riff (once clear, then palm muted at chords repeat twice lyrics continue)
e -----------------------2----------------1--|
B ------0h1p0------------3------1-1-1-----0--|
G --0--------------------2------0-0-0-----0--|
D ---------------2-0-----0------2-2-2-----0--|
A ------------------------------3-3-3-----2--|
E ----------------------------------------3-|

Lyrics:

I stick loneliness, your lips
and the two coins of your eyes
into my pockets, yeah.

Well the train skates into
Port Henry late sunday.
Sometimes when I'm ridin' high
feeling fine you know there's something
troubling my mind.

So I reach into my pockets for some
small change.
I reach into my pockets for some
small change.

I want bones like iron, blood like mercury
so I can tell you when I'm rising,
and when I'm sinking in.

[CHORUS]

We're gonna take it to the people, yeah.
We're gonna take it to the people, yeah.
We're gonna take it to the people, yeah.
We're gonna take it to the people, yeah.

Hey let's drink from the cup
share some luck.
Go ahead and laugh cause it don't
cost much.  No no don't, don't cost much.

I stick loneliness, your lips
and the two coins of your eyes
into my pockets, yeah.

I stick loneliness, your lips
and the two coins of your eyes
into my pockets, yeah.
Comments