Dispatch - Two Coins Chords & Tabs

 

Two Coins Chords & Tabs

Dispatch Chords & Tabs

Version: 4 Type: Tab 0 ratings
1 star 2 stars 3 stars 4 stars 5 stars
comments

Two Coins Tab

Dispatch
“Two Coins”
Tabbed by: Justin Bachtell 

FIXED BY ERIC MORANDEAU

Intro (played once through)
-------------------------------------------
------------------9--7--5------------------
------6h7p6-------9--7--6---5-----5--------
---7--------------9--7--7-----7-7---7------
-------------9-7--7--5--7------------------
------------------------5------------------

Verse & Chorus
---------------------------
------------------9--7--5--
------6h7p6-------9--7--6--
---7--------------9--7--7--
-------------9-7--7--5--7--
------------------------5—-

Break
[ Tab from: http://www.guitartabs.cc/tabs/d/dispatch/two_coins_tab_ver_4.html ]
-----s9---------------------
--x--s10-9--x--7------------
--9--s11-9--7--7------------
--9--s11-9--7--7------------
--7--s9--7--5--5------------
--x------x--x--x------------

Harmonica Solo for Guitar

-----3~-----------------------3~-----------------------
--3~----3-5--5-3-----------3~-----3-5b—5-3-------------
-----------------4--------------------------4-5---4----
-------------------5~--------------------------------5-
-------------------------------------------------------

I fixed almost ewerything on the tab except the solo.But i havent checked
that out yet.

The chords and picking is sound exacly like the song it self except
one part of the intro that comes after the chords.
Comments