Dispatch - Two Coins Chords & Tabs

 

Two Coins Chords & Tabs

Dispatch Chords & Tabs

Version: 3 Type: Tab 0 ratings
1 star 2 stars 3 stars 4 stars 5 stars
comments

Two Coins Tab

   
Title:  Two Coins
Artist: Dispatch
Tuning: Standard
Tabbed By: Alec Synakowski
Email: Smartalec88@hotmail.com

		   *--- This Tab Is 100% Correct---*



Intro:
               D    C  G   

e--------------5----3--3---------------------------5----3--3---
B----0h1-------7----5--3-------------------0h1-----7----5--3---
G-0------------7----5--4--2-0-0-3-0------0---------7----5--4---
D--------2-0---7----5--5------------3-0-------2-0--7----5--5---
A--------------5----3--5---------------------------5----3--5---
E--------------5----3--3---------------------------5----3--5---
              


Verse:

e--------------5----3--3------
B----0h1-------7----5--3------
G-0------------7----5--4------
D--------2-0---7----5--5------
A--------------5----3--5------
E--------------5----3--3------


Bridge 1:

e---5-5---7---7----5---3------
B---7-7---8---8----7---5------
G---7-7---9---7----7---5------
D---7-7---9---9----7---5------
A---5-5---7---10---5---3------
E---5-5---7---7----5---3------

Verse

Second guitar part:
[ Tab from: http://www.guitartabs.cc/tabs/d/dispatch/two_coins_tab_ver_3.html ]
e-----------------------------------------------------------
B-----------------------------------------------------------
G-------------0-----------------------0---------------------
D-----------0-------0---------------0-----------------------
A-------0-2-----3-3-------------0-2-----3-3-2-2--0h2-0------
E--3--3--------------------3--3------------------------3----



Bridge 2 w/ harmonica solo:

e---5-5---7---7----5---3-------
B---7-7---8---8----7---5-------
G---7-7---9---7----7---5-------
D---7-7---9---9----7---5-------
A---5-5---7---10---5---3-------
E---5-5---7---7----5---3-------

Harmonica Solo:

e----3------------------------3------------------------
B--3---3-5--3-5-3-0---------3---3-5--3-5-3-0-1----0----
G-------------------0--------------------------------0-
D------------------------------------------------------
A------------------------------------------------------
E------------------------------------------------------

Ending:

e-----------------------------x5x----x3x--x3x------
B--------------------0h1------x7x----x5x--x3x------
G--2-0-0-3---------0----------x7x----x5x--x4x------
D------------3p0----------2-0-x7x----x5x--x5x------
A-----------------------------x5x----x3x--x5x------
E-----------------------------x5x----x3x--x3x------


| /  slide up
| \  slide down
| h  hammer-on
| p  pull-off
| ~  vibrato
| +  harmonic
| x  Mute note
Comments