Dispatch - Two Coins Chords & Tabs

 

Two Coins Chords & Tabs

Dispatch Chords & Tabs

Version: 2 Type: Tab 0 ratings
1 star 2 stars 3 stars 4 stars 5 stars
comments

Two Coins Tab

Dispatch
“Two Coins”
Tabbed by: Justin Bachtell


Intro (played once through)
-------------------------------------------
------------------7--5--3------------------
------4h5p4-------7--5--4---3p0---3--------
---5--------------7--5--5-------5---5p3p0--
-------------7-5--5--3--5------------------
------------------------3------------------

Verse & Chorus
---------------------------
------------------7--5--3--
------4h5p4-------7--5--4--
---5--------------7--5--5--
-------------7-5--5--3--5--
------------------------3—-
[ Tab from: http://www.guitartabs.cc/tabs/d/dispatch/two_coins_tab_ver_2.html ]
Break

-----s7---------------------
--x--s8--7--x--5------------
--7--s9--7--5--5------------
--7--s9--7--5--5------------
--5--s7--5--3--3------------
--x------x--x--x------------

Harmonica Solo for Guitar

-----3~-----------------------3~-----------------------
--3~----3-5--5-3-----------3~-----3-5b—5-3-------------
-----------------4--------------------------4-5---4----
-------------------5~--------------------------------5-
-------------------------------------------------------
-------------------------------------------------------
Comments