Dispatch - Two Coins Chords & Tabs

 

Two Coins Chords & Tabs

Dispatch Chords & Tabs

Version: 1 Type: Tab 2 ratings
1 star 2 stars 3 stars 4 stars 5 stars
comments

Two Coins Tab

"Two Coins"
Dispatch
Tabbed by Mike «VsG»
mLynch20@mac.com

*note: Copy and paste this into a word processor and change the font to COURIER

Intro:
e-----------------5---3--3-----------------
B-----------------7---5--3-----------------
G-----4h5p4-------7---5--4-3-----3---------
D--5--------------7---5--5---5-5--5-3------
A------------7-5--5---3--5------------5----
E------------------------3-----------------


e-----------------5---3--3----
B-----------------7---5--3----
G-----4h5p4-------7---5--4----
D--5--------------7---5--5----
A------------7-5--5---3--5----
E------------------------3----
[ Tab from: http://www.guitartabs.cc/tabs/d/dispatch/two_coins_tab.html ]
Verse:
e-----------------------------5---3----3------
B-----------------------------7---5----3------
G------4h5p4------------------7---5----4------
D---5-------------------------7---5----5------
A----------------7---5--------5---3----5------
E--------------------------------------3------

2ond Guitar:  (not 100% sure on this)
e-------------------------------- 
B--------------------------------
G------------------0-------------
D----------------0---------------
A------------2-3-----3-(2)-------
E---3-3-3-3----------------------


Bridge:

E---5-----7-7----10---7-5---5-3----
B---7-----8-7h8--12---8-7---7-5----
G---7-7/9-9-9----12---9-7---7-5----
D---7-7/9-9-9----12---9-7---7-5----
A---5-----7-7----10---7-5---5-3----
E----------------------------------
Comments