Dispatch - Time Served Chords & Tabs

 

Time Served Chords & Tabs

Dispatch Chords & Tabs

Version: 4 Type: Tab 0 ratings
1 star 2 stars 3 stars 4 stars 5 stars
comments

Time Served Tab

   
Song: Time Served
Artist: Dispatch
Tabbed by: Matt Quinlan

Intro/riff:

e|--------------------------
B|--------------------------
G|--------------------------
D|---5p0------5p0-----7-5---
A|-------5-7------5-7-----7-
E|--------------------------



e|--------------------------------
B|--------------------------------
G|--------------------------------
D|---5p0------5p0-----------------
A|-------5-7------5h7p5-----------
E|----------------------h7-6-5-3-0
[ Tab from: http://www.guitartabs.cc/tabs/d/dispatch/time_served_tab_ver_4.html ]
e|--------------------------
B|--------------------------
G|--------------------------
D|---5p0------5p0-----7-5---
A|-------5-7------5-7-----7-
E|--------------------------

e|-------------------------------
B|-------------------------------
G|----------------------------0--
D|---5p0------5p0---------0-2--0-
A|-------5-7--------0-1-2--------
E|----------------3--------------

Verse Chords:
(Use barre chords)

Em  D  C  D


When he starts playing fancy licks, he's really just
playing notes in the chords, so just play around with the chord shapes



Questions/comments e-mail me at ALMATTY2001@yahoo.com
Comments