Dispatch - Time Served Chords & Tabs

 

Time Served Chords & Tabs

Dispatch Chords & Tabs

Version: 3 Type: Tab 0 ratings
1 star 2 stars 3 stars 4 stars 5 stars
comments

Time Served Tab

This is a great song and I hope atleast one person looks at this--enjoy!

Intro

e----------------------------------------------------------------------
B----------------------------------------------------------------------
G--0--------------0--------2--0-----0--------------0-------------------
D-----2--0--2--0-----2--0--------2-----2--0--2--2-----2--0-------------
A-----------------------------------------------------------2--0-------
E-----------------------------------------------------------------3--0-

e----------------------------------------------------------------------
B----------------------------------------------------------------------
G--0--------------0--------2--0-----0----------------------------------
D-----2--0--2--0-----2--0--------2-----2--0--2--0--------------0--2----
A--------------------------------------------------------0--2----------
E--------------------------------------------------0--3----------------

The chords:
[ Tab from: http://www.guitartabs.cc/tabs/d/dispatch/time_served_tab_ver_3.html ]
e----------------------------------------------------------------------
B----------------------------------------------------------------------
G----------------------------------------------------------------------
D--9--7--9--5--7-------------------------------------------------------
A--7--5--7--3--5-------------------------------------------------------
E----------------------------------------------------------------------


The picking part:

e----------------------------------------------------------------------
B----------------------------------------------------------------------
G----------------------------------------------------------------------
D-------------------------------7--5--4--5--2--------9-----9--7--------
A--7--7--10--7--7--10--9--5--5-----------------7--7-----7--------5--5--
E----------------------------------------------------------------------

e----------------------------------------------------------------------
B----------------------------------------------------------------------
G----------------------------------------------------------------------
D--7--5--4--5--2-------------------------------------------------------
A----------------------------------------------------------------------
E----------------------------------------------------------------------
Comments