Dispatch - The General Chords & Tabs

 

The General Chords & Tabs

Dispatch Chords & Tabs

Version: 6 Type: Tab 0 ratings
1 star 2 stars 3 stars 4 stars 5 stars
comments

The General Tab

   
Band: Dispatch
Song: The General
Tablature by: Kurt Andersen

Ok, here with my fourth tab to this awesome site, my others being Burndt Jamb
Version 3 (Weezer), Burndt Jamb solo (Weezer), & Birdland (Weather Report), and
now the awesome song, The General.  Thanks again to Reid Lindberg for showing
me this awesome song and this awesome band. Now, on to the goods.

h= hammer on
p= pull off
/= slide

-Here We Go-
                                Bb   F                       Cm    G
      |- e-----------------|-1-1-x-1-|-------------------|-3-3-x-3-|
      |  B-----------------|-3-3-x-1-|-------------------|-4-4-x-3-|
intro-   G-----------------|-3-3-x-2-|-------------------|-5-5-x-4-|
      |  D-----------------|-3-3-x-3-|-3-3/5-3-----------|-5-5-x-5-|
      |  A--------1--1-----|-1-1-x-3-|---------5p3-------|-3-3-x-5-|
      |_ E--1h2h3------3p1-|-----x-1-|-------------6p3/8-|-----x-3-|
                            Eb       Bb  F
           e--------------|-6--------6-|-1-1-1-x-1-1-1--|
           B--------------|-8--------6-|-1-1-1-x-1-1-1--|
           G--------------|-8--------7-|-2-2-2-x-2-2-2--|   end intro
           D--------------|-8--------8-|-3-3-3-x-3-3-3--|
           A------1h3-3/6-|-6--------8-|-3-3-3-x-3-3-3--|
           E--1h3---------|----6-6-6-6-|-1-1-1-x-1-1-1--|
[ Tab from: http://www.guitartabs.cc/tabs/d/dispatch/the_general_tab_ver_6.html ]
           Bb          F         Cm        G           Eb        Bb
      |-e----1-x-x-x---1-x-x-x-|---3-x-x-x---3-x-x-x-|---6-x-x-x---6-x-x-x-|
      | B----3-x-x-x---1-x-x-x-|---4-x-x-x---3-x-x-x-|---8-x-x-x---6-x-x-x-|
verse-  G----3-x-x-x---2-x-x-x-|---5-x-x-x---4-x-x-x-|---8-x-x-x---7-x-x-x-|
      | D----3-x-x-x---3-x-x-x-|---5-x-x-x---5-x-x-x-|---8-x-x-x---8-x-x-x-|
      | A--1-1-x-x-x---3-x-x-x-|-3-3-x-x-x---5-x-x-x-|-6-6-x-x-x---8-x-x-x-|
      |_E------------1-1-x-x-x-|-----x-x-x-3-3-x-x-x-|-----x-x-x-6-6-x-x-x-|

           F
        e--1-1-x-1-1-1--|
        B--1-1-x-1-1-1--|
        G--2-2-x-2-2-2--|
        D--3-3-x-3-3-3--|
        A--3-3-x-3-3-3--|
        E--1-1-x-1-1-1--|

The second part for the verse is basically the same
as the first part is, and its the same for the chorus.

Hereís the little part after the chorus.

                G                     F
        e-------3-3-x-x-3-|-----------1-1-x-x-1-|
        B-------3-3-x-x-3-|-----------1-1-x-x-1-|
        G-------4-4-x-x-4-|-----------2-2-x-x-2-|
        A-------5-5-x-x-5-|-----------3-3-x-x-3-|
        D-------5-5-x-x-5-|-1-3-------3-3-x-x-3-|
        Eó1-2-3-3-3-x-x-3-|-----3p2-1-1-1-x-x-1-|
The bridge is also the
same as the intro.

The Outro is also the
same as the intro

Order of Parts:
Intro        x2
Verse        x4
Chorus       x4
Post-Chorus  x2
Verse        x2
Chorus       x4
Post-Chorus  x2
Bridge       x2
Chorus       x2
Outro        x1

There is also a short
ending after the outro.

        e----------|
        B----------|
        G----------|
        A----------|
        D-------1--|
        Eó1h2h3----|
And that is The General. Hope this song suits you well.
Have fun and ROCK ON!!!!!!!!!!
-Kurt Andersen
Comments