Dispatch - The General Chords & Tabs

 

The General Chords & Tabs

Dispatch Chords & Tabs

Version: 3 Type: Tab 0 ratings
1 star 2 stars 3 stars 4 stars 5 stars
comments

The General Tab

Artist: Dispatch
Song: The General
Tabbed By: SayItAintSo
[ Tab from: http://www.guitartabs.cc/tabs/d/dispatch/the_general_tab_ver_3.html ]
E|---------------------------------------|
B|---------------------------------------|
G|------------3-3------------------------|
D|------------3-3---3---3h5p3------------|
A|------1-1---1-1---3----------5p3-------|
E|1-2-3-------------1---------------5p3--|

E|-4-4--4----4---------------------------|
B|-5-5--4----4---------------------------|
G|-6-6--5----5--8-8----------------------|
D|-6-6--6----6--8-8--8-8--3--3--3-3------|
A|-4-4--6----6--6-6--8-8--3--3--3-3------|
E|------4----4-------6-6--1--1--1-1------|
Comments