Dispatch - The General Chords & Tabs

 

The General Chords & Tabs

Dispatch Chords & Tabs

Version: 1 Type: Tab 0 ratings
1 star 2 stars 3 stars 4 stars 5 stars
comments

The General Tab

   
Dispatch – The General
by: gonza
gserradasduarte@hotmail.com

Intro x2                     A#    |    F                                Cm   |   Gm
E|---------------------------1----------1---------------------------------3--------3---------------
B|---------------------------3----------1---------------------------------4--------3---------------
G|---------------------------3----------2---------------------------------5--------3---------------
D|---------------------------3----------3------3/5--3---------------------5--------5---------------
A|------------1--1-----------1----------3---------------5--3--------------3--------5---------------
E|--1h2h3----------3---------1----------1----------------------6--3-------3--------3---------------

                            D#   |    A#             F
----------------------------6----------6-------------1---------------------------------------------|
----------------------------8----------6-------------1---------------------------------------------|
----------------------------8----------7-------------2---------------------------------------------|
----------------------------8----------8-------------3---------------------------------------------|
-------------1h3p1----------6----------8-------------3---------------------------------------------|
---1h3----------------------6----------6-------------1---------------------------------------------|
[ Tab from: http://www.guitartabs.cc/tabs/d/dispatch/the_general_tab.html ]
Verses [Repeatedly] - There was a decorated general...
         A#            F             Cm            Gm               D#          A#             F
|--------1-------------1-------|------3-------------3-------|-------6-----------6--------|-----1---|
|--------3-------------1-------|------4-------------3-------|-------8-----------6--------|-----1---|
|--------3-------------2-------|------5-------------3-------|-------8-----------7--------|-----2---|
|--------3-------------3-------|------5-------------5-------|-------8-----------8--------|-----3---|
|--------1-------------3-------|------3-------------5-------|-------6-----------8--------|-----3---|
|--------1-------------1-------|------3-------------3-------|-------6-----------6--------|-----1---|

...go now you are forgiven...    Gm                       F     F  /    Gm                       F
                             |---3------------------------1-----1--2----3------------------------1-|
                             |---3------------------------1-----1--2----3------------------------1-|
                             |---3------------------------2-----2--3----3------------------------2-|
                             |---5------------------------3-----3--4----5------------------------3-|
                             |---5---1--1/3--1------------3-----3--4----5---1--1/3--1------------3-|
                             |---3-----------------3--1---1-----1--2----3----------------3--1----1-|

Verse ending
|----------------------------------------------------|
|----------------------------------------------------|
|----------------------------------------------------|
|----------------------------------------------------|
|--------------1-------------------------------------|
|---1h2h3--------------------------------------------|

        The tab is perfect. So take a shower and shine your shoes, you got no time to lose..
 Play it whit conviction. More to come, Gonza.
Comments