Dispatch - The General Correct Chords & Tabs

 

The General Correct Chords & Tabs

Dispatch Chords & Tabs

Version: 1 Type: Tab 1 rating
1 star 2 stars 3 stars 4 stars 5 stars
comments

The General Correct Tab

The General


h-hammer on
p-pull off
/-slide up
m- muffle
                                                                            m   m


intro
e ---------------1-1--1--------------------3-3--3------------6-6--5-/6--1-1-1-1-1-1-
b ---------------3-3--1--------------------4-4--3------------8-8--5-/6--1-1-1-1-1-1-
g ---------------3-3--2---3-h5-3-----------5-5--3------------8-8--6-/7--2-2-2-2-2-2-
d ---------------3-3--3----------5-3-------5-5--5------------8-8--7-/8--3-3-3-3-3-3-
a --------1-1----1-1--3--------------6-3-6-3-3--5-------1-h3-6-6--7-/8--3-3-3-3-3-3-
e 1-h2-h3-----3--1-1--1--------------------3-3--3--1-h3------6-6--5-/6--1-1-1-1-1-1-
[ Tab from: http://www.guitartabs.cc/tabs/d/dispatch/the_general_correct_tab.html ]
for the verse and chorus use the bar chords that i put on the intro

right after the chorus it says go now you are forgiven then it does this

e -------3---------------1---------------------------------------------------
b -------3---------------1---------------------------------------------------
g -------3---------------2---------------------------------------------------
d -------5---------------3---------------------------------------------------
a -------5-1-3-1---------3---------------------------------------------------
e -1-2-3-3-------3-h2-h1-1---------------------------------------------------

after that it just goes into another verse and the rest of the song is made up of that so listen to
it and get it right
Comments