Dispatch - The General Chords & Tabs

 

The General Chords & Tabs

Dispatch Chords & Tabs

Version: 1 Type: Bass Tab 0 ratings
1 star 2 stars 3 stars 4 stars 5 stars
comments

The General Bass Tab

Song: The General
Artist: Dispatch
Album: Bang, Bang
Tabbed by: Dan C.

Rest for 50 seconds
Come in after drum roll each time
G-----------
D--8--------
A-6-6-8----        x2
E-----6-6-1-1-

Pre-Chorus
"I have seen the others.."
G----------------------------------------------------------
D-----------------------------------------------------------
A-1-11-------1-3-33-1-----5-6-66-5--------------------0-
E------3-1-11----------3-33---------6-66-5-1-11-11-11-- x2

Chorus
"Take a shower n' shine your shoes.."
G------------------------------------------
D----------------------8-------------------
A-11-1-----33-3-----6-6-8-----------------
E------11-1-----33-3----6-6-1-1-1-1------- x2

Riff
"Go now you are forgiven.."
G-------------------------
D-------------------------
A--------3-1------------
E-11-2-3----3-2-1-1-1-- x2
[ Tab from: http://www.guitartabs.cc/tabs/d/dispatch/the_general_btab.html ]
Verse
"but the men stood fast with their guns on their shoulders.."
G--------------------------
D---------------------------
A-1-1---3-3---6-6--------0
E-----1-1---3-3---6-6-1-1

Pre-chorus
Chorus
Riff

Forgiven part at the end
G----------------------------------------------------------
D-----------------------------------------------------------
A-1-11-------1-3-33-1-----5-6-66-5--------------------0-
E------3-1-11----------3-33---------6-66-5-1-11-11-11--  x3
   Come in quiet first two times then get loud on the third

G---------------------------------
D--3------5-----8-----------------
A-1-1-3-3-3-5-6-6-8------------
E-----1-1---3-3---6-6-11-1-11--

G------------------------------------------
D------------------------------------------
A-1-1---3-3----6-6------------------------
E-----1-1---3-3----6-6-1-1-1-3-5-6------

Any questions, comments, or suggestions for other tabs? 
Email me at Lenderhavn@aol.com
Comments