Dispatch - Steeples Chords & Tabs

 

Steeples Chords & Tabs

Dispatch Chords & Tabs

Version: 4 Type: Tab 0 ratings
1 star 2 stars 3 stars 4 stars 5 stars
comments

Steeples Tab

   
"Steeples"
Dispatch
Tabbed by Rob Stewart, topdawg039@yahoo.com and AIM


---------------------------------------------------------------------------------------|
---------------------------------------------------------------------------------------|
---------------------------------------------------------------------------------------|
------------------------------------------------4-4-4----------------------------------|
------1-2--------1-2--4-4-5------1-2-----1-2-44----------------------------------------|
--2-3-------2-3--------------2-3-----2-3-----------------------------------------------|

Verse : F# to G  (major barre)

Chorus:  Bmin, F#major, G, D

and it switches to  Emin, A, G, F# major


But the main part of the tab is.....the SOLO


-23-2-3-3-5-7-7-7-9-9-10\----10\0-10\0-10-10/12-12-10-9--9h10p9----------(0)----|
----------------------------------------------------------------10/12-12/14-----|
--------------------------------------------------------------------------------|
--------------------------------------------------------------------------------|
--------------------------------------------------------------------------------|
--------------------------------------------------------------------------------|


--10-9----9-10----10-9----9-----------------------------------------------------|
-------12--------------12-------------------------------------------------------|
-----------------------------------------------------------------11-------------|
-----------------------------------8-9-8---------8-9-8---------8/11-------------|
------------------------------9-10-------10-9-10-------10-9-10------------------|
--------------------------------------------------------------------------------|

[ Tab from: http://www.guitartabs.cc/tabs/d/dispatch/steeples_tab_ver_4.html ]
------------------7/--9\-7/-9\--7/-9\--9/--10----12/14-14-12-10-9---------------|
-11--9--7-6-7-------------------------------------------------------------------|
------------------8/-10\-8/-10\-8/-10\-10/-11-----------------------------------|
Tremolo...----|-----------------------------------------------------------------|
--------------------------------------------------------------------------------|
--------------------------------------------------------------------------------|


--9h10p9-12-10-9h10p9--------9h10p9-12-10-9h10p9--------------------------------|
----------------------12-10----------------------12-10--10-8-7------------------|
--------------------------------------------------------------------------------|
--------------------------------------------------------------------------------|
--------------------------------------------------------------------------------|
--------------------------------------------------------------------------------|

----------------------------------------------------------10-12-12(bend)-10-12-12p10-------|
--7h8p7----------------------------------12-12-10--10//12----------------------------12-10-|
--------9-7-9-10(bend)------7---7---11-9---------------------------------------------------|
------------------------7h9---9---9--------------------------------------------------------|
-------------------------------------------------------------------------------------------|
-------------------------------------------------------------------------------------------|

-10-9-9-10-12-10-9-9h10p9--------------------------------------------------------------------|
--------------------------12-10-8--8-8-8-7---12-12-12-11---11-12-14-14-14-12-11-12--14-14-14-|etc.
---------------------------------------------------------------------------------------------|shake a little
---------------------------------------------------------------------------------------------|
---------------------------------------------------------------------------------------------|
---------------------------------------------------------------------------------------------|

Thats a cool solo.
Comments