Dispatch - Steeples Chords & Tabs

 

Steeples Chords & Tabs

Dispatch Chords & Tabs

Version: 3 Type: Tab 0 ratings
1 star 2 stars 3 stars 4 stars 5 stars
comments

Steeples Tab

regular tuning most of the chords are barred
[ Tab from: http://www.guitartabs.cc/tabs/d/dispatch/steeples_tab_ver_3.html ]
(this would make sense if you know the rythym of the song)
Verses:
E -2--2--2--3--3--3--2--2--3-----2--2--2--3--3--3--2--3--2-|
B -2--2--2--3--3--3--2--2--3-----2--2--2--3--3--3--2--3--2-|
G -3--3--3--4--4--4--3--3--4-----3--3--3--4--4--4--3--4--3-|
D -4--4--4--5--5--5--4--4--5-----4--4--4--5--5--5--3--4--3-|
A -4--4--4--5--5--5--4--4--5-----4--4--4--5--5--5--4--5--4-|
E -2--2--2--3--3--3--2--2--3-----2--2--2--3--3--3--2--3--2-|

Chorus: "did you ever want..."            "its a silent..."
E -2--2--2--2--2--2--2--3--3--5--5--5--5-----0--0--0--|
B -3--3--3--2--2--2--2--3--3--7--7--7--7-----0--0--0--|
G -4--4--4--3--3--3--3--4--4--7--7--7--7-----0--0--0--|
D -4--4--4--4--4--4--4--5--5--7--7--7--7-----2--2--2--|
A -2--2--2--4--4--4--4--5--5--5--5--5--5-----2--2--2--|
E -2--2--2--2--2--2--2--3--3--5--5--5--5-----0--0--0--|

-0--3--2-|
-2--3--2-|
-2--4--3-|
-2--5--4-|
-0--5--4-|
-0--3--2-|
Comments