Dispatch - Spades Acoustic Chords & Tabs

 

Spades Acoustic Chords & Tabs

Dispatch Chords & Tabs

Version: 1 Type: Tab 0 ratings
1 star 2 stars 3 stars 4 stars 5 stars
comments

Spades Acoustic Tab

   
THIS IS DIFFERENT FROM PRINCE OF SPADES. its acoustic and it has a different intro and 
but besides that it is mainly the same

Dispatch
Who Are We Living For (Remastered)
Spades


---------5--------------------------------------------|
-3-5-5b6---6r5-3-5b6r5-3----3-5b6r5-3----3-5b6r5-3----|
-------------------------4------------3------------2--|	x1
------------------------------------------------------|
------------------------------------------------------|
------------------------------------------------------|

 Dm      Cadd9   G/B     Cadd9	          Dm        Cadd9
-1-------0-------0-------0----------------1---------0-----------|
-3-3-----3-------3-------3----------------3-3-------3-----------|
-2-2-0---0-------0-------0----------------2-2-0-----0-----------|	x1
-0---0---2-------0-------2--------0h2h3-0-0---0-----2-----------|
-------3-3---0h2-2---2h3-3--0h2h3---------------0h3-3--2-3-2----|
-------------------------------------------------------------3--|

 Dm	Cadd9	G/B	Cadd9
-1------0-------0-------0----|
-3-3----3-------3-------3----|
-2-2-0--0-------0-------0----|	x3
-0---0--2-------0-------2----|
--------3-------2---2h3-3----|
-----------------------------|

 Dm	Cadd9
-1------0----------------|
-3-3----3----------------|
-2-2-0--0----------------|	x1
-0---0--2----------------|
--------3--2-3-2---------|
-----------------3--3-1--|

 Dm	     Cadd9   G/B     Cadd9
-1-----------0-------0-------0----|
-3-3---------3-------3-------3----|
-2-2-0-------0-------0-------0----|	x4
-0---0-------2-------0-------2----|
---------0h3-3---0h2-2---2h3-3----|
----------------------------------|

 A
-0--
-2--
-2--	x1
-2--
-0--
----

 Dm	Cadd9
-1------0-------------|
-3-3----3-------------|
-2-2-0--0-------------|	x1
-0---0--2-------------|
--------3--2-3-2------|
-----------------3-1--|

 Dm	     Cadd9   G/B     Cadd9
-1-----------0-------0-------0----------------|
-3-3---------3-------3-------3----------------|
-2-2-0-------0-------0-------0----------------|	x1
-0---0-------2-------0-------2-------0h2h3-0--|
---------0h3-3---0h2-2---2h3-3---2h3----------|
----------------------------------------------|

 Dm	     Cadd9   G/B     Cadd9  Dm	Cadd9
-1-----------0-------0-------0------1------0---------|
-3-3---------3-------3-------3------3-3----3---------|
-2-2-0-------0-------0-------0------2-2-0--0---------|	x1
-0---0-------2-------0-------2------0---0--2---------|
---------0h3-3---0h2-2---2h3-3-------------3---2--3--|
-----------------------------------------------------|

 Dm	     Cadd9   G/B     Cadd9
-1-----------0-------0-------0----|
-3-3---------3-------3-------3----|
-2-2-0-------0-------0-------0----|	x1
-0---0-------2-------0-------2----|
---------0h3-3---0h2-2---2h3-3----|
----------------------------------|
[ Tab from: http://www.guitartabs.cc/tabs/d/dispatch/spades_acoustic_tab.html ]
 Dm	Cadd9
-1------0-------------|
-3-3----3-------------|
-2-2-0--0-------------|	x1
-0---0--2-------------|
--------3--2-3-2------|
-----------------3-1--|

 Dm	     Cadd9   G/B     Cadd9
-1-----------0-------0-------0----|
-3-3---------3-------3-------3----|
-2-2-0-------0-------0-------0----|	x2
-0---0-------2-------0-------2----|
---------0h3-3---0h2-2---2h3-3----|
----------------------------------|

 A
-0--
-2--
-2--	x1
-2--
-0--
----

 Dm	Cadd9
-1------0-------------|
-3-3----3-------------|
-2-2-0--0-------------|	x1
-0---0--2-------------|
--------3--2-3-2------|
-----------------3-1--|

 Dm	     Cadd9   G/B     Cadd9
-1-----------0-------0-------0---------------|
-3-3---------3-------3-------3---------------|
-2-2-0-------0-------0-------0---------------|	x2
-0---0-------2-------0-------2--------0h2h3--|
---------0h3-3---0h2-2---2h3-3--0h2h3--------|
---------------------------------------------|

 Dm	     Cadd9   G/B     Cadd9
-1-----------0-------0-------0-----|
-3-3---------3-------3-------3-----|
-2-2-0-------0-------0-------0-----|	x1
-0---0-------2-------0-------2-----|
---------0h3-3---0h2-2---2h3-3-----|
--------------------------------3--|

 Dm	     Cadd9   G/B     Cadd9
-1-----------0-------0-------0----|
-3-3---------3-------3-------3----|
-2-2-0-------0-------0-------0----|	x7
-0---0-------2-------0-------2----|
---------0h3-3---0h2-2---2h3-3----|
----------------------------------|

 A	A
-0------0--|
-2------2--|
-2------2--|	x1
-2------2--|
-0------0--|
-----------|

 Dm	     Cadd9   G/B     Cadd9   Dm		 Cadd9	 G/B	 Cad9
-1-----------0-------0-------0-------1-----------0-------0-------0---------------|
-3-3---------3-------3-------3-------3-3---------3-------3-------3---------------|
-2-2-0-------0-------0-------0-------2-2-0-------0-------0-------0---------------|	x1
-0---0-------2-------0-------2-------0---0-------2-------0-------2--------0h2h3--|
---------0h3-3---0h2-2---2h3-3---------------0h3-3---0h2-2---2h3-3--0h2h3--------|
---------------------------------------------------------------------------------|

 Dm	     Cadd9   G/B     Cadd9   Dm		 Cadd9
-1-----------0-------0-------0-------1-----------0----|
-3-3---------3-------3-------3-------3-3---------3----|
-2-2-0-------0-------0-------0-------2-2-0-------0----|	x1
-0---0-------2-------0-------2-------0---0-------2----|
---------0h3-3---0h2-2---2h3-3---------------0h3-3----|
--------------------------------3-1-------------------|

---------5--------------------------------------------|
-3-5-5b6---6r5-3-5b6r5-3----3-5b6r5-3----3-5b6r5-3----|
-------------------------4------------3------------2--|	x1
------------------------------------------------------|
------------------------------------------------------|
------------------------------------------------------|
Comments