Dispatch - Riddle Chords & Tabs

 

Riddle Chords & Tabs

Dispatch Chords & Tabs

Version: 1 Type: Tab 0 ratings
1 star 2 stars 3 stars 4 stars 5 stars
comments

Riddle Tab

   
Awsome new song from the new APB CD

Dispatch/One Fell Swoop
All Points Bulletin CD1: Somerville
Riddle


 Ebm
-------------------------|
-------------------------|
---8p6-------------------|	x1
-------8------8---8------|
-6-------6--6---6---6-6--|
-------------------------|

 Ebm
---------------------------|
---------------------------|
-----8p6-------------------|	x3
---------8------8---8------|
-6-6-------6--6---6---6-6--|
---------------------------|

 Ebm		   Gb	      Db
-----------------------------------------|
-----------------------------------------|
-----------------------------------------|	x2
---8-8------8-8------11-11------11-11----|
-6-----6--6-----6--9-------9-------------|
------------------------------9-------9--|

 Ebm		   Gb	      Db	 Cb		   Cb
-----------------------------------------------------------------------------|
-----------------------------------------------------------------------------|
-----------------------------------------------------------------------------|	x1
---8-8------8-8------11-11------11-11------9-9------9-9------9-9------9-9----|
-6-----6--6-----6--9-------9-------------9-----9--9-----9--------9--9-----9--|
------------------------------9-------9--7-----------------7-----------------|

 Ebm
-------------------------|
-------------------------|
---8p6-------------------|	x1
-------8------8---8------|
-6-------6--6---6---6-6--|
-------------------------|

 Ebm
---------------------------|
---------------------------|
-----8p6-------------------|	x3
---------8------8---8------|
-6-6-------6--6---6---6-6--|
---------------------------|

 Ebm		   Gb	      Gb
-----------------------------------------|
-----------------------------------------|
-----------------------------------------|	x2
---8-8------8-8------11-11------11-11----|
-6-----6--6-----6--9-------9-------------|
------------------------------9-------9--|

 Ebm		   Gb	      Gb	 Cb		   Cb
-----------------------------------------------------------------------------|
-----------------------------------------------------------------------------|
-----------------------------------------------------------------------------|	x1
---8-8------8-8------11-11------11-11------9-9------9-9------9-9------9-9----|
-6-----6--6-----6--9-------9-------------9-----9--9-----9--------9--9-----9--|
------------------------------9-------9--7-----------------7-----------------|

 Ebm
---------------------------------------------------------6-6-6-6-6-6-6-6--|
---7-7-7-7-----------------------------------------------7-7-7-7-7-7-7-7--|
---8-8-8-8----------8------------------------------------8-8-8-8-8-8-8-8--|	x1
---8-8-8-8-8-8-8------8--8-8--8-8------8-8------8-8------8-8-8-8-8-8-8-8--|
-6---------6-6-6--6---------------6-6------6-6------6-6--6-6-6-6-6-6-6-6--|
--------------------------------------------------------------------------|

 Gb	Bbm	Ebm		        Eb     Db		Db
-9------6--------------------------------------4-----------------------------------|
-11-----6--------------------------------------6-----------------------------------|
-11-----6---------8p6--------------------------6--6-6---------------6-----6-----6--|	x1
-11-----8-------------8------8---8-------------6------6---6---6--------------------|
-9------8-------6-------6--6---6---6-6----6-6--4--------4---4---4-4---4-4---4-4----|
--------6--------------------------------------------------------------------------|

 Gb	Bbm	Ebm		        Eb        Db	  B   Bb
-11-----6-----------------------------------------4-------7---6--|
-11-----6-----------------------------------------6-------7---6--|
-11-----6---------8p6-----------------------------6-------8---7--|	x1
-11-----8-------------8------8---8----------------6-------9---8--|
-9------8-------6-------6--6---6---6-6--6-6--6-6--4-------9---8--|
--------6-------------------------------------------------7---6--|
[ Tab from: http://www.guitartabs.cc/tabs/d/dispatch/riddle_tab.html ]
 Ebm	Ebm
-6---------------------------------------------------------------------|
-7---------------------------------------------------------------------|
-8----------8p6-----------------------8p6-----------------------8p6----|	x1
-8--------------8------8---8--------------8------8---8--------------8--|
-6------6-6-------6--6---6---6-6--6-6-------6--6---6---6-6--6-6--------|
-----------------------------------------------------------------------|

-------------------------------------------------------------------------------------------------|
-------------------------------------------------------------------------------------------------|
-------------------------------------------------------------------------------------------------|	x1
-----4-----------4-----------4---------------4-----------4-----------4---------------------------|
-6-------4---6-------4---6-------4-------6-------4---6-------4---6-------4-----------------------|
-------------------------------------7---------------------------------------7--7-7-7-7-7-7-7-7--|

 Gb	Bbm	Ebm		  Eb	          	Db		   Db
-9------6-----------------------------------------------4--------4---------4------------------|
-11-----6-----------------------------------------------6--------6---------6------------------|
-11-----6---------8-8----------------8-8----------------6--6-6---6--6-6----6-6-6-6--6--6-6-6--|	x1
-11-----8-------------8----8---8---------8---8---8------6------6-6------6--6------------------|
-9------8-------6--------6---6---6-6-------6---6---6-6--4--------4---------4------------------|
--------6-------------------------------------------------------------------------------------|

 Gb	Bbm	Ebm		  Eb	          	Db	B   Bb
-9------6-----------------------------------------------4-------7---6--|
-11-----6-----------------------------------------------6-------7---6--|
-11-----6---------8-8----------------8-8----------------6-------8---7--|	x1
-11-----8-------------8----8---8---------8---8---8------6-------9---8--|
-9------8-------6--------6---6---6-6-------6---6---6-6--4-------9---8--|
--------6-------------------------------------------------------7---6--|

 Ebm	Abm	Cb  	Dbm  Bbm Ebm	 Abm	 Cb      Bbm
-6------4-------7-------9----6---6-------4-------7-------6--|
-7------4-------7-------9----6---7-------4-------7-------6--|
-8------4-------8-------9----6---8-------4-------8-------6--|	x1
-8------6-------9-------11---8---8-------6-------9-------8--|
-6------6-------9-------11---8---6-------6-------9-------8--|
--------4-------7-------9----6-----------4-------7-------6--|

 Ebm	Abm	Cb 	Dbm  Bbm Ebm	 Abm	 Cb	 Bbm
-6------4-------7-------9----6---6-------4-------7-------6----------|
-7------4-------7-------9----6---7-------4-------7-------6----------|
-8------4-------8-------9----6---8-------4-------8-------6----------|	x1
-8------6-------9-------11---8---8-------6-------9-------8----------|
-6------6-------9-------11---8---6-------6-------9-------8-------6--|
--------4-------7-------9----6-----------4-------7-------6----------|

 Ebm	Abm	Cb     Dbm  Bbm	Ebm	Abm	Cb	Bbm
-6------4-------7------9----6---6-------4-------7-------6--|
-7------4-------7------9----6---7-------4-------7-------6--|
-8------4-------8------9----6---8-------4-------8-------6--|	x2
-8------6-------9------11---8---8-------6-------9-------8--|
-6------6-------9------11---8---6-------6-------9-------8--|
--------4-------7------9----6-----------4-------7-------6--|

 Ebm	Abm	Cb  Dbm	 Bbm Ebm     Abm     Cb      Dbm  Bbm Ebm
-6------4-------7---9----6---6-------4-------7-------9----6---6--|
-7------4-------7---9----6---7-------4-------7-------9----6---7--|
-8------4-------8---9----6---8-------4-------8-------9----6---8--|	x1
-8------6-------9---11---8---8-------6-------9-------11---8---8--|
-6------6-------9---11---8---6-------6-------9-------11---8---6--|
--------4-------7---9----6-----------4-------7-------9----6------|
Comments