Dispatch - Railway Chords & Tabs

 

Railway Chords & Tabs

Dispatch Chords & Tabs

Version: 2 Type: Tab 0 ratings
1 star 2 stars 3 stars 4 stars 5 stars
comments

Railway Tab

"Railway"
By: Dispatch
Tabbed by: Mike ?VsG?
RageAgainstDubya@Yahoo.com

Part 1:
e-10--8--6--3-----10--8--6--1-|
B-11--8--6--3-----11--8--6--1-|
G-12--8--7--3-----12--8--7--2-|
D-----------------------------|
A-----------------------------|
E-----------------------------|


Part 2:(mostly hit the top four strings):
e--6-6-6--3-3-3--8--8--8---1-|
B--6-6-6--3-3-3--8--8--8---1-|
G--7-7-7--3-3-3--9--9--9---2-|
D--8-8-8--5-5-5--10-10-10--3-|
A--8-8-8--5-5-5--10-10-10--3-|
E--6-6-6--3-3-3--8--8--8---1-|


Part 3:
e--------------------------------------------|
B--------------------------------------------|
G--------------3---3h5---------------3---3h5-|
D------3---3h5---5-----------3---3h5---5-----|
A--3h5---5---------------3h5---5-------------|
E--------------------------------------------|

[ Tab from: http://www.guitartabs.cc/tabs/d/dispatch/railway_tab_ver_2.html ]
e------------------------------------------------|
B------------------------------------------------|
G--------------3---3h5-5-5-5b6r5p3---3---------3-|
D------3---3h5---5-----------------5---5-5p3h5---|
A--3h5---5---------------------------------------|
E------------------------------------------------|


e--------------6---6h8---------------6---6h8-|
B------6---6h8---8-----------6---6h8---8-----|
G--5/7---7---------------5/7---7-------------|
D--------------------------------------------|
A--------------------------------------------|
E--------------------------------------------|


e--------------6---6h8--8-8-8b9r8p6---6-----|
B------6---6h8---8------------------8---8-6-|
G--5/7---7----------------------------------|
D-------------------------------------------|
A-------------------------------------------|
E-------------------------------------------|
Comments