Dispatch - Prince Of Spades Chords & Tabs

 

Prince Of Spades Chords & Tabs

Dispatch Chords & Tabs

Version: 1 Type: Tab 0 ratings
1 star 2 stars 3 stars 4 stars 5 stars
comments

Prince Of Spades Tab

   
This is an awsome song by dispatch. Standard tuning. enjoy!

E----------------------------------------------------------------|
B----3------3-------3-------3---------3------3-------------------|
G-h2---2------2-------0-----2------h2---2----2-------------------|
D--0---------------------------0h2--0----------------------------|
A--------h3-----3h2-----3h2---------------h3---2-3-2-------------|
E----------------------------------------------------3-----------|

Verse:
D C add9 Emin add9 C add9 :]]repeat
[ Tab from: http://www.guitartabs.cc/tabs/d/dispatch/prince_of_spades_tab.html ]
when they sing "Silence ensues"
E------------2---------------------------------------------------|
B------------3---------------------------------------------------|
G------------2---------------------------------------------------|
D------------0---------------------------------------------------|
A--2-3-2---------------------------------------------------------|
E--------3-1-----------------------------------------------------|

"The King is in his court, counting all his diamonds."
E--0-x-------------------------2---------------------------------|
B--2-x----3------3-------------3---------------------------------|
G--2-x-h2---2------2-----------2---------------------------------|
D--2-x--0----------------------0---------------------------------|
A--0-x--------h3-----2-3-2---------------------------------------|
E--------------------------3-1-----------------------------------|
Comments