Dispatch - Mission Chords & Tabs

 

Mission Chords & Tabs

Dispatch Chords & Tabs

Version: 1 Type: Tab 0 ratings
1 star 2 stars 3 stars 4 stars 5 stars
comments

Mission Tab

Band: Dispatch
Song: Mission

Tabber: sheydz@hotmail.com. Email me for corrections or comments


Intro: (listen to song for strum pattern)
--9---11------9--------4------4--6------4----------------------------|
--9---11------9--------4------4--6------4----------------------------|
--10--12------10-------5------5--6------5----------------------------|
--11--13------11-------6------6--8------6----------------------------|
--11--13------11-------6------6--8------6----------------------------|
--9---11------9--------4------4--6------4----------------------------|

Verse 1: (finger pick)
--9-------4---------------------------------------------------|
--9-------4---------------------------------------------------|
--10------5---------------------------------------------------|
--11------6---------------------------------------------------|
--11------6---------------------------------------------------|
--9-------4---------------------------------------------------|
"Let it be known ..."

(strum - same as intro)
--9---11------9--------4------4--6------4----------------------------|
--9---11------9--------4------4--6------4----------------------------|
--10--12------10-------5------5--6------5----------------------------|
--11--13------11-------6------6--8------6----------------------------|
--11--13------11-------6------6--8------6----------------------------|
--9---11------9--------4------4--6------4----------------------------|
"We will go there leave this weakness ..."

Chorus: (strum - emphasis on upstrokes)
-6------9---8----------------------------------------------|
-6------9---8----------------------------------------------|
-6------11--10---------------------------------------------|
-8------11--10---------------------------------------------|
-8------9---8----------------------------------------------|
-6------9---8----------------------------------------------|
"Lo we are not so ..."

Bridge:
--4---11----9----4-----------------------------------------|
--4---11----9----4-----------------------------------------|
--5---12----11---5-----------------------------------------|
--6---13----11---6-----------------------------------------|
--6---13----9----6-----------------------------------------|
--4---11----9----4-----------------------------------------|
"Be so well ..."

Intro Riff Again

Verse 2: (fingerpick)
--9-------4---------------------------------|
--9-------4---------------------------------|
--10------5---------------------------------|
--11------6---------------------------------|
--11------6---------------------------------|
--9-------4---------------------------------|
"Damn this damn that ..."
[ Tab from: http://www.guitartabs.cc/tabs/d/dispatch/mission_tab.html ]
--9---11------9--------4------4--6------4-----------|
--9---11------9--------4------4--6------4-----------|
--10--12------10-------5------5--6------5-----------|
--11--13------11-------6------6--8------6-----------|
--11--13------11-------6------6--8------6-----------|
--9---11------9--------4------4--6------4-----------|
"We will fly sometime ..."

CHORUS


Play the Bridge again, and then:
--9---6----4---6-----------------------------|
--9---6----4---6-----------------------------|
--11-6----5---6-----------------------------|
--11-8----6---8-----------------------------|
--9---8----6---8-----------------------------|
--9---6----4---6-----------------------------|
"We are not so ..."

--9---6---11---4----------------------------|
--9---6---11---4----------------------------|
--11--6---13---5----------------------------|
--11--8---13---6----------------------------|
--9---8---11---6----------------------------|
--9---6---11---4----------------------------|
"We are not so ..."

Solo:
----------------------------------------------------------|
----------------------------------------------------------|
-----6-8---10///---10-8-6-10-8-6--------------------------|  x2
-6h8-----------------------------8------------------------|
----------------------------------------------------------|
----------------------------------------------------------|

----------------------------------------------------------|
--------------------9--11----9-11-------------------------|
-----6-8-10/--8h10----------------------------------------|
-6h8------------------------------------------------------|
----------------------------------------------------------|
----------------------------------------------------------|

--------9-9----------9------9-11-13-11-9------------------|
--9h11--------9h11------11--------------------------------|
----------------------------------------------------------|
----------------------------------------------------------|
----------------------------------------------------------|
----------------------------------------------------------|

----------------------------------------------------------|
----------------------------------------------------------|
------6--88/10--/////10----------------------------------|
-6--8-----------------------------------------------------|
----------------------------------------------------------|
----------------------------------------------------------|

Verse:
--9---11------9--------4------4--6------4----------------|
--9---11------9--------4------4--6------4----------------|
--10--12------10-------5------5--6------5----------------|
--11--13------11-------6------6--8------6----------------|
--11--13------11-------6------6--8------6----------------|
--9---11------9--------4------4--6------4----------------|
"We're gone ..."

CHORUS
Comments