Dispatch - Here We Go Chords & Tabs

 

Here We Go Chords & Tabs

Dispatch Chords & Tabs

Version: 1 Type: Tab 0 ratings
1 star 2 stars 3 stars 4 stars 5 stars
comments

Here We Go Tab

   
Dispatch/One Fell Swoop
Four-Day Trials
Here We Go
Tabbed by Owen Sakovics
www.tabsinonefellswoop.com

 Bm	A	F#	E	Bm	A	F#   G F#  E
-2------0-------2-------0-------2-------0-------2----3-2---0--|
-3------2-------2-------0-------3-------2-------2----3-2---0--|
-4------2-------3-------1-------4-------2-------3----4-3---1--|	x1
-4------2-------4-------2-------4-------2-------4----5-4---2--|
-2------0-------4-------2-------2-------0-------4----5-4---2--|
----------------2-------0-----------------------2----3-2---0--|

 Bm	A	F#	E	Bm	A	F#	E
-2------0-------2-------0-------2-------0-------2-------0--|
-3------2-------2-------0-------3-------2-------2-------0--|
-4------2-------3-------1-------4-------2-------3-------1--|	x11
-4------2-------4-------2-------4-------2-------4-------2--|
-2------0-------4-------2-------2-------0-------4-------2--|
----------------2-------0-----------------------2-------0--|

 Bm			Bm		F#
-2----------------------2---------------2--|
-3----------------------3---------------2--|
-4----------------------4---------------3--|	x1
-4----------------------4---------------4--|
-2----------------------2---------------4--|
----------------------------------------2--|

 Bm	A	F#	E	Bm	A	F#	G
-2------0-------2-------0-------2-------0-------2-------3--|
-3------2-------2-------0-------3-------2-------2-------3--|
-4------2-------3-------1-------4-------2-------3-------4--|	x1
-4------2-------4-------2-------4-------2-------4-------5--|
-2------0-------4-------2-------2-------0-------4-------5--|
----------------2-------0-----------------------2-------3--|
[ Tab from: http://www.guitartabs.cc/tabs/d/dispatch/here_we_go_tab.html ]
 D	F#	E	Bm
-5------2-------7-------7--|
-7------2-------9-------7--|
-7------3-------9-------7--|	x2
-7------4-------9-------9--|
-5------4-------7-------9--|
--------2---------------7--|

 Bm	A	F#	E
-2------0-------2-------0--|
-3------2-------2-------0--|
-4------2-------3-------1--|	x10
-4------2-------4-------2--|
-2------0-------4-------2--|
----------------2-------0--|

 Bm	A	F#	E   Bm
-2------0-------2-------0---2--|
-3------2-------2-------0---3--|
-4------2-------3-------1---4--|	x1
-4------2-------4-------2---4--|
-2------0-------4-------2---2--|
----------------2-------0------|

 D	F#	E	Bm  Bm	A
-5------2-------7-------2---2---0--|
-7------2-------9-------3---3---2--|
-7------3-------9-------4---4---2--|	x2
-7------4-------9-------4---4---2--|
-5------4-------7-------2---2---0--|
--------2--------------------------|

 D	F#	E	Bm
-5------2-------7-------7--|
-7------2-------9-------7--|
-7------3-------9-------7--|	x1
-7------4-------9-------9--|
-5------4-------7-------9--|
--------2---------------7--|

 Bm	A	F#	E	Bm	A	F#	E
-2------0-------2-------0-------2-------0-------2-------0--|
-3------2-------2-------0-------3-------2-------2-------0--|
-4------2-------3-------1-------4-------2-------3-------1--|	x6
-4------2-------4-------2-------4-------2-------4-------2--|
-2------0-------4-------2-------2-------0-------4-------2--|
----------------2-------0-----------------------2-------0--|

 Bm	A	F#	E	Bm	A	F#	E   Bm
-2------0-------2-------0-------2-------0-------2-------0---2--|
-3------2-------2-------0-------3-------2-------2-------0---3--|
-4------2-------3-------1-------4-------2-------3-------1---4--|	x1
-4------2-------4-------2-------4-------2-------4-------2---4--|
-2------0-------4-------2-------2-------0-------4-------2---2--|
----------------2-------0-----------------------2-------0------|
Comments