Dispatch - General Chords & Tabs

 

General Chords & Tabs

Dispatch Chords & Tabs

Version: 8 Type: Tab 0 ratings
1 star 2 stars 3 stars 4 stars 5 stars
comments

General Tab

Song: The General
Artist: Dispatch
Type: INTRO

STANDARD TUNING
[ Tab from: http://www.guitartabs.cc/tabs/d/dispatch/general_tab_ver_8.html ]
E----------------------------------------------------------|
B----------------------------------------------------------|
G----------------------3-3----------------------5-5--------|
D----------------------3-3-3--3--5--3--0--------5-5-5------|
A-------------1--------1-1-3--------------3--1--3-3-5------|
E--1--2h--3h-----2--1------1------------------------3------|

E----------------------------------------------------------|
B----------------------------------------------------------|
G--------------------8-8-----------------------------------|
D--------------------8-8--8-8--3-3-x-3-3-3-----------------|
A--------3--4--5--6--6-6--8-8--3-3-x-3-3-3-----------------|
E--3--6-------------------6-6--1-1-x-1-1-1-----------------|

Tell me what you think.... xxiamjoexx69@hotmail.com
Comments