Dispatch - General Chords & Tabs

 

General Chords & Tabs

Dispatch Chords & Tabs

Version: 7 Type: Tab 0 ratings
1 star 2 stars 3 stars 4 stars 5 stars
comments

General Tab

   
The General

Performed by Dispatch

Tabbed by Ravi Sood - ravi327@hotmail.com

[ Tab from: http://www.guitartabs.cc/tabs/d/dispatch/general_tab_ver_7.html ]
Intro
                      Bb    F                        Cm     G
E|----------------------------------------------------3--3--3----|
B|--------------------3--3----------------------------4--4--3----|
G|--------------------3--3--2-------------------------5--5--4----|
D|--------------------3--3--3--3-3h5p3-3--------------5--5--5----|
A|-----------1--1-----1--1--3------------5-3-1---1/3--3--3--5----|
E|--1--2--3--------3--------1------------------3------------3----|

            Cm Eb      Bb        F
E|---------------------------------------------|
B|----------------8----------------------------|
G|-----------5/8--8----------7\----------------|
D|-----------5/8--8--X-8-X-8-8\--3-3--3-X-3----|
A|------1-3--3/6--6--X-8-X-8-8\--3-3--3-X-3----|
E|--1-3--------------X-6-X-6-6\--1-1--1-X-1----|
Comments